Final Fantasy Ix Frontier Village Dali by Misc Comp Games

Final Fantasy Ix Frontier Village Dali tab by Misc Comp Games

Guitar tabs

"Frontier Village Dali"
Track 27, Final Fantasy IX Sountrack
Written by Nobuo Uematsu.
Tabbed solely by Andrew Muir - andrew_muir69@hotmail.com

This song should be finger-picked, and played at a slow tempo.

E |0---------0-----|1---------1-----|2---------2-----|1---------1-----|
B |--3---3-----3---|--3---3-----3---|--3---3-----3---|--1---1-----1---|
G |----0---------0-|----2---------2-|----2---------2-|----2---------2-|
D |----------------|----------------|----------------|----------------|
A |3---------------|3---------------|3---------------|3---------------|
E |----------------|----------------|----------------|----------------|

E |0---------0-----|0---------0-----|----------------|3-1-1-----------|
B |--3---3-----3---|--3---3-----3---|1-------1-------|1---1-----------|
G |----0---------0-|----0---------0-|--2-------0-----|2---------------|
D |----------------|----------------|----2-------2---|3---------------|
A |3---------------|2---------------|0---------------|----------------|
E |----------------|----------------|--------3-------|----------------|

E |0---------0-----|0---------0-----|0---------0-----|----------------|
B |--3---3-----3---|--3---3-----3---|--3---3-----3---|3-2-2-----------|
D |----0---------0-|----0---------0-|----0---------0-|0---0-----------|
G |----------------|----------------|----------------|2---------------|
A |3---------------|2---------------|1---------------|0---------------|
E |----------------|----------------|----------------|----------------|

E |3-----3---------|3-----3---------|0---------0-----|--------4-|
B |--3-------2---2-|--3-------3---3-|--3---3-----3---|------3---|
D |----2-------3---|----0-------0---|----0---------0-|----1-----|
G |3---------------|----------------|----------------|--3-------|
A |----------------|1---------------|3---------------|----------|
E |----------------|----------------|----------------|4---------|

*Repeat from the start.

Find guitar tabs and chords

A B C D E F G H I J K L M N O P Q R S T U V W X Y Z #