GuitarTabsExplorer icon
GuitarTabsExplorer icon

Log in

Songbook

  • Log in to add and see bookmarks

Last visited songs

  • No songs visited yet...
Final Fantasy 7 Airship by Misc Comp Games

Final Fantasy 7 Airship tab by Misc Comp Games

Tabs

Title: Final Fantasy 7 - "Highwind Takes to the Skies
(Airship Theme)"
 Author: Nobuo Uematsu
 Tabbed By: The Sixth Fret
 Email: [email protected]

 Si bien es mi primera tablatura creo que esta casi
completamente correcta
 Esta tablatura muestra la melodia principal y el bajo
de acompañamiento
 para captar el ritmo debes oir la cancion


 It's my first tab but i'm sure its almost completely
correct
 This tab show the main melody and the bass
accompaniment of the song
 I didn't put the rythm here so you have to hear the
song

 (My English is not very good...... :'(...)

 (Maintain the basses to get a better sound)

  ||INTRO 00:00
 Chord diagramE MajorE
|---------0------------|--------------|----------1-----------|
 Chord diagramBB
|------0-----4--2--0---|--------------|-------1-----4--2--1--|
 Chord diagramG+G
|---2-----------------2|-0--2---------|----2-----------------|
 Chord diagramD MajorD
|----------------------|-------4------|----------------------|
 Chord diagramA augmentedA
|----------------------|----------4--2|----------------------|
 Chord diagramE MajorE
|-0--------------------|-3------------|-1--------------------|

         || MAIN PART 00:14
 Chord diagramE MajorE
|--------------|----------8--6-|-------------------------|
 Chord diagramBB
|-----------4--|-------6-------|----------6--9--7--------|
 Chord diagramG+G
|-3---1--3-----|-6--8----------|----6--8-----------6--8--|
 Chord diagramD MajorD
|--------------|---------------|-------------------------|
 Chord diagramA augmentedA
|--------------|-4-------------|-4-----------------------|
 Chord diagramE MajorE
|-----------4--|----------6----|-------------5-----7-----|

 Chord diagramE MajorE
|----------8--6--|-------------------------|---------|
 Chord diagramBB
|-------6--------|----------6--9--7--------|-6-------|
 Chord diagramG+G
|-6--8-----------|----6--8-----------6--8--|---------|
 Chord diagramD MajorD
|----------------|-------------------------|---------|
 Chord diagramA augmentedA
|-4--------------|-4-----------------------|-8-------|
 Chord diagramE MajorE
|----------6-----|-------------5-----------|----8--6-|

 Chord diagramE MajorE |------------------|
 Chord diagramBB |-6-9-6-7--6-7-----|
 Chord diagramG+G |--------------8---|
 Chord diagramD MajorD |------------------|
 Chord diagramA augmentedA |-----5----9-------|
 Chord diagramE MajorE |-6-8---7----7-8-4-|

  00:36
 Chord diagramE MajorE |----------8--6--|-------------------------|
 Chord diagramBB |-------6--------|----------6--9--7--------|
 Chord diagramG+G |-6--8-----------|----6--8-----------6--8--|
 Chord diagramD MajorD |----------------|-------------------------|
 Chord diagramA augmentedA |-4--------------|-4-----------------------|
 Chord diagramE MajorE |----------6-----|-------------5-----------|

 Chord diagramE MajorE |-------------8--6--|-------------------------|
 Chord diagramBB |----------6--------|----------6--9--7--------|
 Chord diagramG+G |----6--8-----------|----6--8-----------6--8--|
 Chord diagramD MajorD |-------------------|-------------------------|
 Chord diagramA augmentedA |-4-----------------|-4-----------------------|
 Chord diagramE MajorE |-------------6-----|-------------5-----------|
  00:49
 Chord diagramE MajorE
|-7--9--10--9-7----7--6-|-10--9-7-2--7--9--|-12--11-9----9--7-|
 Chord diagramBB
|---------------7-----7-|---------------10-|----------9-------|
 Chord diagramG+G
|---------------------6-|---------------9--|------------------|
 Chord diagramD MajorD
|---------------------8-|---------4-----11-|------------------|
 Chord diagramA augmentedA
|---------------5-----9-|------------5--12-|----------7-------|
 Chord diagramE MajorE
|-------7---9------7--6-|-10--7---------9--|-9---11------9--4-|

 Chord diagramE MajorE |------------------|-11--9-7----------|
 Chord diagramBB |------------------|---------7--------|
 Chord diagramG+G |------------------|------------------|
 Chord diagramD MajorD |------------------|------------------|
 Chord diagramA augmentedA |------------------|---------6--------|
 Chord diagramE MajorE |-4--6--7--4--6--7-|-7---9------7---2-|


  Here are those damned licks
  01:15
 Chord diagramE MajorE
|-----6-7-9-----------6-|---------2-------------|-------3-5---------1|
 Chord diagramBB
|-7-9-------------6-7---|-----3-5---------------|-3-5-6---------2-3--|
 Chord diagramG+G
|-------------6-8-------|-4-6---------------4-7-|-----------2-4------|
 Chord diagramD MajorD
|-----------------------|-------------4-6-7-----|--------------------|
 Chord diagramA augmentedA
|-----------------------|-----------------------|--------------------|
 Chord diagramE MajorE
|-----------------------|-----------------------|--------------------|


 Chord diagramE MajorE |---------0-----------|---------9-11---------7-|
 Chord diagramBB |-----2-3-----------2-|-9-11-12----------8-9---|
 Chord diagramG+G |-2-4-----------1-2---|--------------8-10------|
 Chord diagramD MajorD |-----------2-4-------|------------------------|
 Chord diagramA augmentedA |---------------------|------------------------|
 Chord diagramE MajorE |---------------------|------------------------|

 Chord diagramE MajorE |-----------------------------------------
 Chord diagramBB |-----4-5-7-----4-5-7-----4-5-7-----4-5-7-
 Chord diagramG+G |-4-6-------4-6-------4-6-------4-6-------
 Chord diagramD MajorD |-----------------------------------------
 Chord diagramA augmentedA |-----------------------------------------
 Chord diagramE MajorE |-----------------------------------------
  Reapeat this 5 times very fast and start over the
song

  01:41
 Chord diagramE MajorE |-8h9p8-6-11
 Chord diagramBB |-----------
 Chord diagramG+G |-----------
 Chord diagramD MajorD |-----------
 Chord diagramA augmentedA |-----------
 Chord diagramE MajorE |-----------

 Esta es una cancion bastante agradable y muy bonita
asi me di el trabajo
 de transcribirla.
 This is a pretty good song so... I tabbed it.

 Si ves esta tablatura te pido que me mandes un mail
 If you see this tab and you like it please send me an
e-mail

 Cualquier comentario envienlo a mi e-mail
 Any correction or comments to my e-mail pliz

 CUALQUIER CHILENO QUE VEA ESTO PORFAVOR
CONTACTARME!!!

[ Privacy | About us ]

Welcome to the guitar community

Why join and log in?
- Get songbook with favourite songs
- Get custom made front page
- Submit chords and tabs
- Submit guitar-cover videos
- Get a lot of thumbs up for your work

Songbook

Last visited songs

Site
Home
Search
Community
Submit chords

Video

No video for this page. Check out how you can submit guitar-cover videos here

Search tabs and chords

Browse by artist

A B C D E F G H I J K L M N O P Q R S T U V W X Y Z #


Menu

Search

Video

Bookmark

Login