Final Fandtasy X Hymn Of The Fayth by Misc Comp Games

Final Fandtasy X Hymn Of The Fayth tab by Misc Comp Games

Guitar tabs

Transcribed by Dominic Monfre (all my own work)
Hymn of the Fayth written by Nobuo Uematsu


    yi=09e=09...=09...
d----------------------------------------------
a------5--------8-------7-------10-------------
E----------------------------------------------

    no=09bo=09...=09...
d------5--------3------5-7------0--------------
a----------------------------------------------
E----------------------------------------------

    re=09n=09...=09...
d------7--------9-------5-------7--------------
a----------------------------------------------
E----------------------------------------------

    yo=09ju=09...=09...
d------5--------3------5-7-------0-------------
a----------------------------------------------
E----------------------------------------------

    ha=09sa=09...=09...
d----------------------------------------------
a------5--------5-------7-------7--------------
E----------------------------------------------

    na=09a=09...=09...
d----------------------------------------------
a------8(let ring)------8(let ring)------------
E----------------------------------------------

    ku=09ta=09...=09...
d----------------------------------------------
a------8--------3-------5-------5--------------
E----------------------------------------------

    e=09e=09...=09...
d----------------------------------------------
a------5(let ring)-----------------------------
E----------------------------------------------

Find guitar tabs and chords

A B C D E F G H I J K L M N O P Q R S T U V W X Y Z #