Log in

One click and you are in

Login with Facebook Login with Google

Why sign up and log in

Guitar Tabs Explorer
Misc Comp Games tabs for Doom level i

Guitar tabs

Hello! this is my first tab!
i made it on my own

this song is from the first level of the game DOOM.
I hope you enjoy!

here some things you need to know :
v - vibrato
x - muted, struck string

E----------------------------------------------------------------
B----------------------------------------------------------------
G----------------------------------------------------------------
D----------------------------------------------------------------
A-----7-----5-----3-----1---1-2----------------------------------
E-x-x-x-x-x-x-x-x-x-x-x-x-x-x-x-----------------------------------


E----------------------------------------------------------------
B----------------------------------------------------------------
G----------------------------------------------------------------
D----------------------------------------------------------------
A-----7-----5-----3-----1~---------------------------------------
E-x-x-x-x-x-x-x-x-x-x-x-x----------------------------------------


E----------------------------------------------------------------
B----------------------------------------------------------------
G----------------------------------------------------------------
D-----7-----5-----3-----1-----1-2--------------------------------
A-x-x-x-x-x-x-x-x-x-x-x-x-x-x-x----------------------------------
E----------------------------------------------------------------


E----------------------------------------------------------------
B----------------------------------------------------------------
G----------------------------------------------------------------
D-----7-----5-----3-----1~---------------------------------------
A-x-x-x-x-x-x-x-x-x-x-x-x----------------------------------------
E----------------------------------------------------------------

Thats it! if you have any comments Email me:

Almost there ...

Sign in to get your own page with links to favourite songs and more. You are just one click away...

Login with Facebook Login with Google