Log in

One click and you are in

Login with Facebook Login with Google

Why sign up and log in

Guitar Tabs Explorer
Misc Comp Games tabs for Diablo1 city

Guitar tabs

by dizzy (dizzy@telebel.de)

I loved the theme in diablo that
was played during beein=B4in the city
here is what i found out about it

(Nylon stringed acoustic guitar)

slow (repeat several times)
|-------1-|-------1-|-------1-|-------1--|
|-----3---|-----3---|-----3---|-----3----|
|---2-----|---3-----|---4-----|---3-----.|
|-0-------|-0-------|-0-------|-0-------.|
|---------|---------|---------|----------|
|---------|---------|---------|----------|

or

slow (repeat several times)
|---------|---------|---------|----------|
|-----3---|-----3---|-----3---|-----3----|
|---2---2-|---3---3-|---4---4-|---3---3-.|
|-0-------|-0-------|-0-------|-0-------.|
|---------|---------|---------|----------|
|---------|---------|---------|----------|

i can=B4t figure out which one=B4s closer to it , because i just
listened to that stuff @ a friend and fell in love with it so
i wrote it without listening to the original
diZ

Almost there ...

Sign in to get your own page with links to favourite songs and more. You are just one click away...

Login with Facebook Login with Google