Search tabs and chords

Browse bands and artists

A B C D E F G H I J K L M N O P Q R S T U V W X Y Z #

Log in

[ Register here | Forgot password ]

Guitar Tabs Explorer
Print

You're A Mean One Mr Grinch bass tab by Misc Christmas

Bass tabs

You're a mean one, Mr. Grinch
G|------------------------------|
D|------------------------------|
A|---------------------3--------|
E|-------3----------------------|

You really are a heel
G|------------------------------|
D|------------------------------|
A|--5------7-----9--------------|
E|------------------------------|

You're as cuddly as a cactus, you're as charming as an eel
G|----------------------------------------------------------|
D|----------------------------------------------------------|
A|--------5-----------------------------3-------------------|
E|--------------------3--------------------------------5----|

Mr Griiinch!
G|-------------|
D|-------------|
A|--------12---|
E|-3-----------|

You're a bad bananna with a...greasy black peel
G|-----------------------------------------------|
D|-----------------------------------------------|
A|----------------------------9------------10----|
E|-7---------------------------------------------|

Repeat and follow lyrics throughout song.

Comments