Log in

One click and you are in

Login with Facebook Login with Google

Why sign up and log in

Guitar Tabs Explorer
Misc Christmas bass tabs for Silent night

Bass tabs

Silent Night
Tabbed By Joakim Jarlind teboho@africamail.com

This is all my work, I figured it out just by listening to my
sister play it on the keyboard and converting it for bass.

G-0-2-0-------0-2-0-------7-7-4---5-5-0------2-2-5-4-2-0-2-0------
D-------2-----------2----------------------------------------2----
A-----------------------------------------------------------------
E-----------------------------------------------------------------

G-2-2-5-4-2-0-2-0-------7--7-7-10--7-4--5--9--5-0---0--------
D-----------------2-------------------------------2---3-0----
A---------------------------------------------------------3--
E------------------------------------------------------------

--

___________________________________________________________

Almost there ...

Sign in to get your own page with links to favourite songs and more. You are just one click away...

Login with Facebook Login with Google