Log in

One click and you are in

Login with Facebook Login with Google

Why sign up and log in

Guitar Tabs Explorer
Misc Christmas chords for Rudolph the red-nosed reindeer ukulele

Rudolph The Red-nosed Reindeer Ukulele chords by Misc Christmas

Misc Christmas chords for Rudolph the red-nosed reindeer ukulele

Guitar chords

Tuning: G C E A (G C E A)

Difficulty: Novice

A|-0--2--0-----5--2--0-|-0--2--0--2--0--5--4-|----0--------4--2--0-|-0--2--0--2--0--2----|
E|----------2----------|---------------------|-3-----3--0----------|-------------------2-|
C|---------------------|---------------------|---------------------|---------------------|
G|---------------------|---------------------|---------------------|---------------------|
A|-0--2--0-----5--2--0-|-0--2--0--2--0--5--4-|----0--------4--2--0-|-0--2--0--2--0--2--7--5-|
E|----------2----------|---------------------|-3-----3--0----------|------------------------|
C|---------------------|---------------------|---------------------|------------------------|
G|---------------------|---------------------|---------------------|------------------------|


A|--2--2--5--2--0-----0-|-----2--0-------|--------0--2--4--4--4-|--5--5--4--2----------|
E|-----------------2----|--3--------3--2-|--0--2----------------|--------------5--3--0-|
C|----------------------|----------------|----------------------|----------------------|
G|----------------------|----------------|----------------------|----------------------|


A|-0--2--0-----5--2--0-|-0--2--0--2--0--5--4-|----0--------4--2--0-|-0--2--0--2--0--2--7--5-|
E|----------2----------|---------------------|-3-----3--0----------|------------------------|
C|---------------------|---------------------|---------------------|------------------------|
G|---------------------|---------------------|---------------------|------------------------|


A|-0--2--0--2--0--2--7--5-|
E|------------------------|
C|------------------------|
G|------------------------|

Almost there ...

Sign in to get your own page with links to favourite songs and more. You are just one click away...

Login with Facebook Login with Google