Log in

One click and you are in

Login with Facebook Login with Google

Why sign up and log in

Guitar Tabs Explorer
Christmas Songs tabs for Rudolph the red nosed reindeer

Rudolph The Red Nosed Reindeer tab by Christmas Songs

Christmas Songs tabs for Rudolph the red nosed reindeer

Tabs

Well folks, here's my version of a Christmas classic. The chord voicings
are pretty straight-forward, hopefully enough so that you'll be able to
share this with your loved ones (along with a few other songs) on
Christmas eve... Enjoy!


                       RUDOLPH THE RED-NOSED REINDEER
                     Arranged for guitar by Mark Leslie
                  Arranged for Bass Guitar by Adam Sorini
                  * * * * * * * * * * * * * * * * * * * *


           <----------------------------- repeat -->
             A chord diagramFF         A chord diagramE minorEm          A chord diagramDmDm        A chord diagramG+G
e|--------|---------------------|------------------|
A chord diagramBB|-----0--|--1---------0--------|------------------|
A chord diagramG+G|--2-----|--2--2------0--0-----|--2---------2--0--|
A chord diagramD MajorD|--------|--3-----3---2-----2--|--3--3------2-----|
A chord diagramA augmentedA|--------|---------------------|--5-----5---3-----|
A chord diagramE MajorE|--------|---------------------|------------------|

  You Know  Dasher +  Dancer +    ....

A chord diagramG+G|--------|--5---------4--------|--2---------------|----------|----------|
A chord diagramD MajorD|--------|---------------------|------------5-----|--3---2---|----------|
A chord diagramA augmentedA|--------|---------------------|------------------|----------|--5---3---|
A chord diagramE MajorE|--------|---------------------|------------------|----------|----------|


   A chord diagramE minorEm                A chord diagramA minorAm              A chord diagramD7D7                 A chord diagramG+G      A chord diagramG7G7

|-----------------|---------------|------------------|-------------------|
|-----------------|---------------|------------------|-------------------|
|-----------------|--2------2--4--|--5--5---5--4--2--|-0------0----------|
|--2---2---2---2--|--2------2-----|--4------4--------|-0------3----------|
|--3-------3------|--3------------|--5------5--------|-2------2----------|
|--5-------5------|---------------|------------------|--------3----------|

   But do you re-  call   ...

|-----------------|---------------|------------------|-------------------|
|--2-----------2//|//7------7--9--|-10 10--10--9--7--|-5-----------------|
|-----------------|---------------|------------------|----------------2--|
|-----------------|---------------|------------------|--------3---5------|
   A chord diagramC majorC                                              AmFlat5  A chord diagramG+G

|--------------------|-----------|---------------------|-----------------|
|-----------------1--|-----------|------------------1--|---0-------------|
|--0---2---0---------|--2----0---|--0--2--0--2--0---2--|---0-------------|
|--2-----------2-----|--2--------|--2-----------2---1--|---0-------------|
|--3-----------3-----|--3--------|--3-----------3------|-----------------|
|--------------3-----|-----------|---------------------|-----------------|

  Rudolph the red nosed ...

|-----------------2--|--------2--|-----------------2^5-|---4-------------|
*-------2----5-------|----2-5----|--------2-----5------|-------5---------|
*--3-----------------|--3--------|--3------------------|-----------5---2-|
|--------------------|-----------|---------------------|-----------------|


  A chord diagramG7G7                   A chord diagramG9G9   A chord diagramG+G     A chord diagramG+G                          A chord diagramC majorC

|-------------------|----------|-------------------------|---------------|
|----------------0--|----------|-------------------------|---------------|
|-----0-------------|--2----0--|--0---2---0---2---0---2--|---0-----------|
|--3-----3---0------|--0-------|--0---------------1------|---2-----------|
|--2---------2------|--2-------|--2---------------2------|---3-----------|
|--3---------3------|----------|-------------------------|---------------|

 And if you  ev--er    saw  it...

|-------------------|----------|-------------------------|---------------|
|----------------3--|-/7----5--|-------------------------|------2--5--2--|*
|------2-----5------|----------|--------2------5------4--|---3-----------|*
|--3----------------|----------|--3----------------------|---------------|


   A chord diagramC majorC                                                 AmFlat5  A chord diagramG+G

|--------------------|-----------|------------------------|--------------|
|-----------------1--|-----------|---------------------1--|---0----------|
|--0---2---0---------|--2----0---|--0--2---0----2--0---2--|---0----------|
|--2-----------2-----|--2--------|--2--------------2---1--|---0----------|
|--3-----------3-----|--3--------|--3--------------3------|--------------|
|--------------3-----|-----------|------------------------|--------------|

  All of  the  other    ...
   A chord diagramG7G7                   A chord diagramG9G9   A chord diagramG+G     A chord diagramG+G                          A chord diagramC majorC     A chord diagramC majorC

|-------------------|----------|-------------------------|---------------|
|----------------0--|----------|----------------------3--|---1-----1-----|
|-----0-------------|--2----0--|--0---2---0---2----------|---0-----3-----|
|--3-----3---0------|--0-------|--0---------------0------|---2-----2-----|
|--2---------2------|--2-------|--2---------------2------|---------3-----|
|--3---------3------|----------|------------------3------|---------------|

 They never let poor   Rudolph   ...
   A chord diagramFF                 A chord diagramC majorC               A chord diagramDmDm     A chord diagramG+G   A chord diagramG7G7    A chord diagramC majorC      A chord diagramC7C7

|-----------------|---------------|----------------|---------------------|
|----------1------|---------------|----------------|---------2-----------|
|--2---2---2---2--|--0---------0--|-----2---0------|---------3-----------|
|--3-------3------|--2----2----2--|--3------0---3--|--2------2-----------|
|--3--------------|--3---------3--|--5------2------|--3------------------|
|-----------------|---------------|----------------|--3------------------|

 Then one  fogg-y   Christmas  ...

|-----------------|---------------|----------------|----------------3----|
|-----------------|-----2---5--2--|-----3----------|-------2----5--------|
|------0---3---0--|--3------------|--5----------2--|--3------------------|
|--1--------------|---------------|---------3------|---------------------|


   A chord diagramG+G           A chord diagramG9G9    A chord diagramG+G       A chord diagramDdimDdim    A chord diagramAm7Am7      A chord diagramBm7Bm7         A chord diagramG+G    A chord diagramG7G7    A chord diagramG+G

|-----------------|---------------|--------------------|-----------------|
|-----------------|--0---0---0----|--1----1----0-------|-----------------|
|----------0---2--|--0-------1----|--0---------2----2--|--0--------------|
|--0---2---0------|--0-------0----|--2---------0-------|--0----3----0----|
|--2-------2------|---------------|--0-----------------|--2---------2----|
|--3--------------|---------------|--------------------|------------3----|

  Rudolph with your nose so bright  Won't ...
|-----------------|---------------|--------------------|-----------------|
|-----------------|---------------|--------------------|---------3--5----|
|------2----------|---------------|-------3----5----2--|------2----------|
|--3-------3---5--|--3---3---4--4-|--5-----------------|--3--------------|


   A chord diagramC majorC                                                  AmFlat5   A chord diagramG+G

|--------------------|-----------|--------------------------|------------|
|-----------------1--|-----------|-----------------------1--|---0--------|
|--0---2---0---------|--2----0---|--0---2---0---2---0----2--|---0--------|
|--2-----------2-----|--2--------|--2---------------2----1--|---0--------|
|--3-----------3-----|--3--------|--3---------------3-------|------------|
|--------------3-----|-----------|--------------------------|------------|

 Then how the reindeer loved him   ...

|-------------------
|----see---------
|--the-begining----
|----"C"-part---------


   A chord diagramG+G                  BmFlat5  A chord diagramG7G7    A chord diagramG+G                    A chord diagramG+G     A chord diagramC majorC

|----------------------|----------|--------------------------|--0--------|
|-------------------0--|----------|-----------------------3--|--1--------|
|------0---------------|--2----0--|--0----2---0---2---0---0--|--0--------|
|--3-------3---0-------|--3-------|--0----------------0---0--|--2--------|
|--2-----------2-------|--2-------|--2----------------2---2--|--3--------|
|--3-----------3-------|----------|-------------------3------|-----------|

  Rudloph the red nosed  reindeer  ...

|-------------------...                               -------|-----------|
|-----see------------...                               ---5--|-----------|
|---the-begining-------...                               ----|--3--------|
|----"G"-part-------...                                ------|-----------|


Rudolph... just in time for Christmas! This version is simple
to learn and play when compared to other versions posted on=20
the net. It is an interpretation of the traditional Christmas
song "Rudolph the Red Nosed Reindeer" and a creation of my=20
own work. This is a great acoustic version and it has a=20
simple picking method that is easy to follow and to sing=20
along with even for beginners. I have created my own unique=20
beginning that can be changed or even left out completely if
so desired. Every note is tabbed out and should be 100%=20
correct. Please email me with any problems or comments.

Submitted by Matthew Seaford=20
December 18, 2001 (2:01 pm)
Traditional Christmas: Rudolph the Red Nosed Reindeer
Seaford19@aol.com=20

( / ) =3D slide


Intro (You know Dasher and Dancer...)

A chord diagramE MajorE ----------------------------------------------------
A chord diagramBB ----------------------------------------------------
A chord diagramG+G ----------------------------------------------------
A chord diagramD MajorD ----------0-2-0-------0-2-0------0-2-0-------0-2-0--
A chord diagramA augmentedA --7-5-2-0-------0-2-0--------2-0-------0-2-0--------
A chord diagramE MajorE ----------------------------------------------------


A chord diagramE MajorE ----------------------------------------
A chord diagramBB ----------------------------------------
A chord diagramG+G ----------------------------------------
A chord diagramD MajorD ----------------------------------------
A chord diagramA augmentedA --2-4-5-7-9---11-12-14-14-12-11-9-7-----
A chord diagramE MajorE ----------------------------------------

End Intro


A chord diagramE MajorE -----------------------------------------------
A chord diagramBB -----------------------------------------------
A chord diagramG+G -----------------------------------------------
A chord diagramD MajorD ----------7----------------7-6----------7------
A chord diagramA augmentedA --7-9-7-5---9-7--7-9-7-9-7------7-9-7-5---9-7--
A chord diagramE MajorE -----------------------------------------------


A chord diagramE MajorE -----------------------------------------------
A chord diagramBB -----------------------------------------------
A chord diagramG+G -----------------------------------------------
A chord diagramD MajorD -------------------------7----------------7-6--
A chord diagramA augmentedA --7-9-7-9-7-9/4--7-9-7-5---9-7--7-9-7-9-7------
A chord diagramE MajorE -----------------------------------------------



A chord diagramE MajorE -----------------------------------------------
A chord diagramBB -----------------------------------------------
A chord diagramG+G -----------------------------------------------
A chord diagramD MajorD ----------7----------------9-7-----------------
A chord diagramA augmentedA --7-9-7-5---9-7--7-9-7-9-7-------9-9-12-9------
A chord diagramE MajorE -----------------------------------------------


A chord diagramE MajorE ---------------------------------------------------
A chord diagramBB ---------------------------------------------------
A chord diagramG+G ---------------------------------------------------
A chord diagramD MajorD ---------------------------------------------------
A chord diagramA augmentedA --7-5-7--5-9-7-5-4--2-4-5-7-9-9-9--12-9-7-5-4-2-0--
A chord diagramE MajorE ---------------------------------------------------


A chord diagramE MajorE -----------------------------------------------
A chord diagramBB -----------------------------------------------
A chord diagramG+G -----------------------------------------------
A chord diagramD MajorD ----------7----------------7-6---------7-------
A chord diagramA augmentedA --7-9-7-5---9-7--7-9-7-9-7-----7-9-7-5---9-7---
A chord diagramE MajorE -----------------------------------------------


A chord diagramE MajorE ------------------
A chord diagramBB ------------------
A chord diagramG+G ------------------
A chord diagramD MajorD ------------9-7---
A chord diagramA augmentedA --7-9-7-9-7-------
A chord diagramE MajorE ------------------

Other versions of Rudolph The Red Nosed Reindeer

Other alternative guitar chords and tabs for the song Rudolph the red nose reindeer by Christmas Songs
Rudolph the red nosed reindeer (Ver. 2)Tabs

Almost there ...

Sign in to get your own page with links to favourite songs and more. You are just one click away...

Login with Facebook Login with Google