Log in

One click and you are in

Login with Facebook Login with Google

Why sign up and log in

Guitar Tabs Explorer
Misc Christmas tabs for O come o come emmanuel

Guitar tabs with lyrics

O Come O Come Emmanuel (Veni Emmanuel)
Transcribed By: Jon Wolf

Tuning: Standard


e-----------------------------------------------------------------
B-----------------------------------------------------------------
G-----------------------------------------------------------------
D--------9-9-9--7--10-9-7------7-9---------7----------------------
A-7--10-------------------10~~~----10-7-10---9-7-5-7~~~-----------
E-----------------------------------------------------------------

e-----------------------------------------------------------------
B-----------------------------------------------------------------
G-----------------------------------------------------------------
D-7-7--------------------------9-9-9--7--10-9-7-------------------
A-----7-7--9-10-9-7-5~~~--7-10------------------10~~~-------------
E-----------------------------------------------------------------

e-----------------------------------------------------------------
B-----------------------------------------------------------------
G-7-7~~~----------------------------------------------------------
D--------9-9~~~-9-7-10-9-7----7-9----------7----------------------
A--------------------------10-----10-7--10---9-7-5-7~~~-----------
E-----------------------------------------------------------------


I've also written out how to play the melody using barre chords, make
sure to experiment with which positions the chords are played in; it
does make a difference. Note that the "Gthing" chord has been tabbed
below as well.


A chord diagramE minorEm A chord diagramA minorAm A chord diagramC majorC A chord diagramB minorBm A chord diagramA minorAm G,
O Come O come E-ma----n--u-^Ö-el,

A chord diagramA minorAm A chord diagramE minorEm A chord diagramG+G A chord diagramC majorC A chord diagramG+G A chord diagramA minorAm A chord diagramD MajorD A chord diagramC majorC A chord diagramB minorBm Em,
And Ran-some cap-tive I----s-ra-el

A chord diagramA minorAm A chord diagramE minorEm A chord diagramB minorBm A chord diagramG+G A chord diagramB minorBm A chord diagramE minorEm D,
That mourns In Lon-ely Ex-il-e here

A chord diagramE minorEm A chord diagramA minorAm A chord diagramC majorC A chord diagramB minorBm A chord diagramA minorAm G.
Until the Son of Go-----d A--pear


Gthing, Bm, A chord diagramE minorEm A chord diagramA minorAm A chord diagramC majorC A chord diagramB minorBm A chord diagramA minorAm G,
Rejoice, Rejoice, E^×-ma----n^×-u---el

A chord diagramA minorAm A chord diagramE minorEm A chord diagramG+G C, A chord diagramG+G A chord diagramA minorAm A chord diagramD MajorD A chord diagramC majorC A chord diagramB minorBm Em[aj]
Shall come to thee, O I----s-ra-el


Gthing:

e--10--------------
B--8---------------
G--0---------------
D------------------
A--10--------------
E------------------


I know I'm not technically supposed to include
the full lyrics to the song, but I found it
necessary to include the first verse in order
to display proper timing of barre chords.
Please send questions and revisions to
LancerB1b2@hotmail.com

Thanks, Jon

Other versions of O Come O Come Emmanuel

O come o come emmanuelChords

Almost there ...

Sign in to get your own page with links to favourite songs and more. You are just one click away...

Login with Facebook Login with Google