Jingle Bells by Christmas Songs

Jingle Bells bass tab by Christmas Songs

Bass tabs

Jingle Bells


This is all my work, I figured it out just by listening to my
sister play it on the keyboard and converting it for bass.

G-0-0-9-7-5-0---0-0-9-7-5-2---2-2-10-9-7-4---4-4-12-12-10-7-9-----------
D-----------------------------------------------------------------------
A-----------------------------------------------------------------------
E-----------------------------------------------------------------------


G-0-0-9-7-5-0---0-0-9-7-5-2---2-2-10-9-7-12-12-12-12-14-12-10-7-5--12---
D-----------------------------------------------------------------------
A-----------------------------------------------------------------------
E-----------------------------------------------------------------------

G-----------------0----------------------------------0------------------
D-2-2-2--2-2-2--2-----0-2---3-3-3--3-3-2-2-2-0-0-2-0--------------------
A-------------------3---------------------------------------------------
E-----------------------------------------------------------------------

G-----------------0--------------------------0-0------------------------
D-2-2-2--2-2-2--2-----0-2---3-3-3--3-3-2-2-2-----3-0--------------------
A-------------------3--------------------------------3------------------
E-----------------------------------------------------------------------

Find guitar tabs and chords

A B C D E F G H I J K L M N O P Q R S T U V W X Y Z #