Log in

One click and you are in

Login with Facebook Login with Google

Why sign up and log in

Guitar Tabs Explorer
Misc Christmas tabs for Auld lang syne

Guitar tabs

Auld Lang Syne

Transcribed by K. Myers

Easy 'solo' Version

*** This version sounds pretty cool distorted.  Good for beginners/intermediate players.


e |----------------------------------------------------------------|
b |-----------------------------------8-10--10-8-------------------|
g |-------------9-7----7--9-7-------9------------9-9----7----7-----|
d |--9-10-9-10------10--------10-10------------------10---10-------|
a |----------------------------------------------------------------|
e |----------------------------------------------------------------|


e |----------------------------------------------------------------|
b |----------------------------------------------------------------|
g |-9-7------------------------------------------------------------|
d |-----10-10--7----10---------------------------------------------|
a |--------------10------------------------------------------------|
e |----------------------------------------------------------------|

Other versions of Auld Lang Syne

Auld lang syneChords
Auld lang syne (Ver. 2)Tabs
Auld lang syne (easy)Tabs

Almost there ...

Sign in to get your own page with links to favourite songs and more. You are just one click away...

Login with Facebook Login with Google