Log in

One click and you are in

Login with Facebook Login with Google

Why sign up and log in

Guitar Tabs Explorer
Misc Childrens tabs for Old mcdonald had a farm

Old Mcdonald Had A Farm tab by Misc Childrens

Misc Childrens tabs for Old mcdonald had a farm

Guitar tabs

Old Mac
Donald
                                                                By well, Old
Mac Donald
                                                   Tabbed By Darren Chapman
(all my own work)
Electric Guitar Version!!

Verse:
Old mac Donald Had a Farm Bit!
E----------------------------------------------------
B----------------------------------------------------
G----------------------------------------------------
D----------------------------------------------------
A--5--5--5--0--2--2--0--------------------------
E----------------------------------------------------
Chourus:
A chord diagramE MajorE I A chord diagramE MajorE I O Bit
E----------------------------------------------------
B----------------------------------------------------
G----------------------------------------------------
D----------------------------------------------------
A--9--9--7--7--5--0-----------------------------
E----------------------------------------------------

Bridge Bit:
And a quack, quack here Bit! (or what ever animal you have chosen)*
E----------------------------------------------------
B----------------------------------------------------
G----------------------------------------------------
D----------------------------------------------------
A-0--0--5--5--5--0--0--5--5--5--0--0--5--5
E----------------------------------------------------

E----------------------------------------------------
B----------------------------------------------------
G----------------------------------------------------
D----------------------------------------------------
A--5--5--5--5--5--5--5--5--5--0--------------
E----------------------------------------------------

Order:

Verse

Chorus

Verse

Chorus

Verse

Bridge Bit

Verse
Chrous

You could make up a solo bit from the verse
pattern if you can be bothered it just i cant!
*play, when you get to all of the fives in a row, on this bit, alot fatser!
There you go, a pointless, silly tab, but its a bit of fun!
Any comments, abuse or queries, chat to me at dazza1753@hotmail.com

_________________________________________________________________
Express yourself with cool emoticons - download MSN Messenger today!
http://www.msn.co.uk/messenger

Almost there ...

Sign in to get your own page with links to favourite songs and more. You are just one click away...

Login with Facebook Login with Google