Log in

One click and you are in

Login with Facebook Login with Google

Why sign up and log in

Guitar Tabs Explorer
Misc Children tabs for Its a small world punk

Guitar tabs

It's a small world (punk)

Hi guys, this is my first tab and also the first song we've coverred with our band.
It's very easy, hope you like it.


INTRO

|--------------------------------------------------------------------|
|--------------------------------------------------------------------|
|--------------------------------------------------------------------|
|---2---------3---------5--------------------------------------------|
|-33-3-555--55-5-777--77-7-888-85---2--3-----------------------------|
|--------------------------------3-----------------------------------|


CHORUS

|--------------------------------------------------------------------|
|--------------------------------------------------------------------|
|-5-5--9-5--7-7-7--7-7--10-7--9-9-9--9-9--12-9--10-10-10----------5--|
|-5-5--9-5--7-7-7--7-7--10-7--9-9-9--9-9--12-9--10-10-10--5-5-9-9-5--|
|-3-3--7-3--5-5-5--5-5-- 8-5--7-7-7--7-7--10-7-- 8 -8 -8--5-5-9-9-3--|
|---------------------------------------------------------3-3-7-7----|

Almost there ...

Sign in to get your own page with links to favourite songs and more. You are just one click away...

Login with Facebook Login with Google