Log in

One click and you are in

Login with Facebook Login with Google

Why sign up and log in

Guitar Tabs Explorer
Misc Children chords for Humpty dumpty ukulele

Humpty Dumpty Ukulele chords by Misc Children

Misc Children chords for Humpty dumpty ukulele

Guitar chords

Tuning: G C E A (G C E A)


Intro:

A|-3--3-------2-----3--3----------0-------3--0-0-0-2-----0--------3-------------2-------3--|
E|-0-----0-0--3-0---0--0--0-------1----1--0--1-----3-----1--0-----0------0-0-0--3--0----0--|
C|-0--0-------2---2-0--0----------0-------0--0-----2-----2----2---0--0-0--------2----2--0--|
G|-0----------0-----0--0-----0-0--2-0-----0--2-----0-0-0-2------2-0-------------0-------0--|


Verse 1:

A|-3--3-------2-----3--3----------0-------3--0-0-0-2-----0--------3-------------2-------3--|
E|-0-----0-0--3-0---0--0--0-------1----1--0--1-----3-----1--0-----0------0-0-0--3--0----0--|
C|-0--0-------2---2-0--0----------0-------0--0-----2-----2----2---0--0-0--------2----2--0--|
G|-0----------0-----0--0-----0-0--2-0-----0--2-----0-0-0-2------2-0-------------0-------0--|


Chorus:

A|-3--3-------2-----3--3----------0-------3--0-0-0-2-----0--------3-------------2-------3--|
E|-0-----0-0--3-0---0--0--0-------1----1--0--1-----3-----1--0-----0------0-0-0--3--0----0--|
C|-0--0-------2---2-0--0----------0-------0--0-----2-----2----2---0--0-0--------2----2--0--|
G|-0----------0-----0--0-----0-0--2-0-----0--2-----0-0-0-2------2-0-------------0-------0--|

Almost there ...

Sign in to get your own page with links to favourite songs and more. You are just one click away...

Login with Facebook Login with Google