Log in

One click and you are in

Login with Facebook Login with Google

Why sign up and log in

Guitar Tabs Explorer
Misc Children chords for Alle meine entchen ukulele

Alle Meine Entchen Ukulele chords by Misc Children

Misc Children chords for Alle meine entchen ukulele

Guitar chords with lyrics

Tuning: G C E A (G C E A)


Intro:

A|---------------------------------------------------------------------------|
E|3---3--5--3----------------3-----------------------------------------------|
C|--4----------4--2--0--2--4---4---------------------------------------------|
G|---------------------------------------------------------------------------|


C         F         C  F         C
Alle meine Entchen schwimmen auf dem See, schwimmen auf dem See
F        C    G7         C
Köpfchen in das Wasser, Schwänzchen in die Höh


A|---------------------------------------------------------------------------|
E|----------------3----------------------------------------------------------|
C|-0----2----4---------4-----------------------------------------------------|
G|---------------------------------------------------------------------------|


  C          F       C   F       C
2. Alle meine Täubchen gurren auf dem Dach, gurren auf dem Dach
F         C   G7      C
Fliegt eins in die Lüfte, fliegen alle nach


A|---------------------------------------------------------------------------|
E|----------------3----------------------------------------------------------|
C|-0----2----4---------4-----------------------------------------------------|
G|---------------------------------------------------------------------------|

  C         F        C   F        C
3. Alle meine Hühner scharren in dem Stroh, scharren in dem Stroh
F       C     G7      C
Finden sie ein Körnchen, sind sie alle froh

A|---------------------------------------------------------------------------|
E|----------------3----------------------------------------------------------|
C|-0----2----4---------4-----------------------------------------------------|
G|---------------------------------------------------------------------------|

  C          F          C   F          C
4. Alle meine Gänschen watscheln durch den Grund, watscheln durch den Grund
F       C    G7     C
Suchen in dem Tümpel, werden kugelrund

End

Almost there ...

Sign in to get your own page with links to favourite songs and more. You are just one click away...

Login with Facebook Login with Google