Log in

One click and you are in

Login with Facebook Login with Google

Why sign up and log in

Guitar Tabs Explorer
Misc Children tabs for Alle meine entchen

Intro

e--------------------------------------------------
h--------------------------------------------------
g--------------0--0--2--2--2--2--0--2--2--2--2--0--
d-----0--2--3--------------------------------------
A--3-----------------------------------------------
E--------------------------------------------------

e----------------------------------
h----------------------------------
g----------------------------------
d--3--3--3--3--2--2--0--0--0--0----
A--------------------------------3-
E----------------------------------
A chord diagramC majorC                  A chord diagramFF                 A chord diagramC majorC
Alle meine Entchen schwimmen auf dem See,
A chord diagramFF                A chord diagramC majorC
schwimmen auf dem See.
A chord diagramG7G7              A chord diagramC majorC       A chord diagramG7G7                 A chord diagramC majorC

Other versions of Alle Meine Entchen

Alle meine entchen ukuleleChords

Almost there ...

Sign in to get your own page with links to favourite songs and more. You are just one click away...

Login with Facebook Login with Google