Search tabs and chords

Search for song, artist or band

Log in

One click and you are in

Login with Facebook Login with Google

Why sign up and log in

Guitar Tabs Explorer
Misc Cartoons guitar tabs for Yu yu hakusho - smile bomb acoustic

Yu Yu Hakusho - Smile Bomb Acoustic tab by Misc Cartoons

Misc Cartoons guitar tabs for Yu yu hakusho - smile bomb acoustic

Intro

Tuning: Standard (E A D G B E)

Key: A chord diagramC minorCm

Difficulty: Advanced

Intro:

     A chord diagramC#m7C#m7                             A chord diagramG7G7                         A chord diagramCm7Cm7
e|---3--X--3--X--3--3--3--3--X--3--X--3--X--3--X--3--X--3--3->3--3--X--3--X--3--X--3--3--3--X--3--X--3----|
B|---4--X--4--X--4--X--X--X--X--4--X--6--X--6--X--6--X--4--6--X--4--X--4--X--4--X--4--6--4--X--4--X--4----|
G|---5--X--5--X--5--5--3--5--X--5--X--4--X--4--X--4--X--4--4--4--3--X--3--X--3--X--3--3--3--X--3--X--3----|
D|---5--X--5--X--5--5--5--5--X--5--X--3--X--3--X--3--X--3--3--3--5--X--5--X--5--X--5--5--5--X--5--X--5----|
A|---4--X--4--X--4--4--4--4--X--4--X--5--X--5--X--5--X--5--5--5--3--X--3--X--3--X--3--3--3--X--3--X--3----|
E|---X--X--X--X--X--X--X--X--X--X--X--3--X--3--X--3--X--3--3--3--X--X--X--X--X--X--X--X--X--X--X--X--X----|

     A chord diagramGsus4Gsus4 A chord diagramC7sus4C7sus4                              A chord diagramA#6A#6                     A chord diagramGsus4Gsus4          A chord diagramC#C#       A chord diagramF#F#
e|---8--8--X---X--X---X--X---X---X--X---X--X---X--X--X--X--X--X--X--X--8--X--8--X--8--X--X--X--X---X---X--|
B|---8->8--11--X--11--X--11--X---X--X---X--X---8--X--8--X--8--6--8--9--8--X--8--X--8--6--8-h9--11--11--11-|
G|---X--X--10--X--10--X--10--X---X--X---X--X---7--X--7--X--7--7--7--7--X--X--X--X--X--6--X--X--11--11--11-|
D|---X--X--10--X--10--X--10--10--X--10--X--10--8--X--8--X--8--8--8--8--X--X--X--X--X--X--X--X--X---X---X--|
A|---X--X--X---X--X---X--X---X---X--X---X--X---X--X--X--X--X--X--X--X--X--X--X--X--X--X--X--X--X---X---X--|
E|---X--X--X---X--X---X--X---X---X--X---X--X---X--X--X--X--X--X--X--X--X--X--X--X--X--X--X--X--X---X---X--|


************************************

| x   Dead note
| >   Accented note
| h   Hammer-on

************************************

Almost there ...

Sign in to get your own page with links to favourite songs and more. You are just one click away...

Login with Facebook Login with Google