Log in

One click and you are in

Login with Facebook Login with Google

Why sign up and log in

Guitar Tabs Explorer
Misc Cartoons guitar chords for Up - married life ukulele

Up - Married Life Ukulele chords by Misc Cartoons

Misc Cartoons guitar chords for Up - married life ukulele

Guitar chords

Tuning: G C E A (G C E A)


Intro:
A|--8--12--8--7---8--12--7---------8---------------12--10-----12--10---------------------|
E|-------------------------10---10----10--8----10---------10-----------------------------|
C|---------------------------------------------------------------------------------------|
G|---------------------------------------------------------------------------------------|

A|--8------8--10--8--7---7--10--7-------7--------------------------------7--------7------|
E|-----10--------------------------8--8----8--6---6--8--6---5--6--8--10-----8--10--------|
C|---------------------------------------------------------------------------------------|
G|---------------------------------------------------------------------------------------|

A|---0----------0------------0--5--7---5--8--7--5--0--2--5--7--8--7--5-------------------|
E|--1---1--0--1-----0------1-------------------------------------------------------------|
C|--------------------2------------------------------------------------------------------|
G|---------------------------------------------------------------------------------------|

A|--8--10--8--7--7--10--7--------7-----------5--7--10--12------1--0--3--5--0----0------0--|
E|-------------------------8--8-----8--6--8----------------------------------3-----1---1--|
C|---------------------------------------------------------10--------------------------0--|
G|-------------------------------------------------------------------------------------2--|

Almost there ...

Sign in to get your own page with links to favourite songs and more. You are just one click away...

Login with Facebook Login with Google