Log in

One click and you are in

Login with Facebook Login with Google

Why sign up and log in

Guitar Tabs Explorer
Misc Cartoons bass tabs for Ulysses 31 - attack of the tridents

Ulysses 31 - Attack Of The Tridents bass tab by Misc Cartoons

Misc Cartoons bass tabs for Ulysses 31 - attack of the tridents

Bass tabs

Tuning: Standard (E A D G)

https://www.youtube.com/watch v=0pBw0AuQltU

G|-------------------|----------------|----------------|---------------|
D|----------3-2------|----------------|----------------|---------------|
A|-5--5-7-5-----5-1--|-1-3-1-5-3-1----|-------1-0------|-------3-2-0---|
E|-------------------|-------------3--|-3-5-3-----3-5--|-5-7-5---------|

G|-------------------|----------------|----------------|---------------|
D|----------3-2------|----------------|----------------|---------------|
A|-5--5-7-5-----5-1--|-1-3-1-5-3-1----|-------1-0------|-------3-2-0---|
E|-------------------|-------------3--|-3-5-3-----3-5--|-5-7-5---------|

G|-------------------|----------------|----------------|---------------|
D|----------3-2------|----------------|----------------|---------------|
A|-5--5-7-5-----5-1--|-1-3-1-5-3-1----|-------1-0------|-------3-2-0---|
E|-------------------|-------------3--|-3-5-3-----3-5--|-5-7-5---------|

G|-------------------|----------------|----------------|---------------|
D|----------3-2------|----------------|----------------|---------------|
A|-5--5-7-5-----5-1--|-1-3-1-5-3-1----|-------1-0------|-------3-2-0---|
E|-------------------|-------------3--|-3-5-3-----3-5--|-5-7-5---------|

G|-------------------|-------------------|-------------------|-------------------|
D|-------------3-----|-------------3-----|-------------3-----|-------------3-----|
A|-5-------7-------3-|-5-------7-------3-|-5-------7-------3-|-5-------7-------3-|
E|-------------------|-------------------|-------------------|-------------------|

G|-------------------|-------------------|-------------------|-------------------|
D|-------------3-----|-------------3-----|-------------3-----|-------------3-----|
A|-5-------7-------3-|-5-------7-------3-|-5-------7-------3-|-5-------7-------3-|
E|-------------------|-------------------|-------------------|-------------------|

G|---------------|-------------------|---------------------|--------------------------|----------------------|
D|---------------|-------------------|---------------------|--------------------------|----------------------|
A|-5----3--4--6--|-5--6--7---6--7--8-|--7--8--9---8--9--10-|--10--11--12---11--12--13-|--12--13--14----------|
E|---------------|-------------------|---------------------|--------------------------|----------------------|

G|-------------------|----------------|----------------|---------------|
D|----------3-2------|----------------|----------------|---------------|
A|-5--5-7-5-----5-1--|-1-3-1-5-3-1----|-------1-0------|-------3-2-0---|
E|-------------------|-------------3--|-3-5-3-----3-5--|-5-7-5---------|

G|-------------------|----------------|----------------|---------------|
D|----------3-2------|----------------|----------------|---------------|
A|-5--5-7-5-----5-1--|-1-3-1-5-3-1----|-------1-0------|-------3-2-0---|
E|-------------------|-------------3--|-3-5-3-----3-5--|-5-7-5---------|

G|-------------------|------------------|------------------|------------------|------------------|
D|-------------------|------------------|------------------|------------------|------------------|
A|-10-------9--------|-8-------7--------|-6-------5--------|-4-------3--------|-2----------------|
E|-------------------|------------------|------------------|------------------|------------------|

Almost there ...

Sign in to get your own page with links to favourite songs and more. You are just one click away...

Login with Facebook Login with Google