Log in

One click and you are in

Login with Facebook Login with Google

Why sign up and log in

Guitar Tabs Explorer
Misc Cartoons guitar chords for Tokyo ghoul - unravel ukulele

Tokyo Ghoul - Unravel Ukulele chords by Misc Cartoons

Misc Cartoons guitar chords for Tokyo ghoul - unravel ukulele

Guitar chords

Tuning: G C E A (G C E A)


Intro:

A|--3-5-3-2-0---5-3-2-0--0-------------------2----2--|
E|-------------------------3--3-1-3-0-------3----3---|
C|----------------------------------------0-----4----|
G|---------------------------------------------------|
A|-------------5s7-----2-----2----3-2-2-2-3-3---|
E|-0-0--0-0----------3-----3--------------------|
C|-----------------0-----4----------------------|
G|----------------------------------------------|


Chorus:


  Em
A|--2-2-x-2------2-2-x------7-0-0-5-0-0-3-0-7-0-0-5-0-0-3----2-2-x-2----2-2-x-|
E|--3-3-x-3------3-3-x---------------------------------------3-3-x-3----3-3-x-|
C|--4-4-x-4------4-4-x---------------------------------------4-4-x-4----4-4-x-|
G|--0-0-x-0------0-0-x---------------------------------------0-0-x-0----0-0-x-|
 ↓ ↑  ↑   ↓ ↑

A|---3-------------------3--------------------3----------------------|
E|----3------0h1p0---------3-----0h1p0----------3-----0h1p0-------0--|
C|--0----0h2-------2p0--0----0h2-------2p0--0-----0h2--------2p0--0--|
G|-------------------------------------------------------------------|

Chorus:

A|-0-0-0---0-7-7-5-5---3-3s5-2-----------|
E|-0-----------0---------------3---------|
C|-------------------2----------2s4------|
G|---------------------------------------|

A|--2-3-3-3~---2-7-7-5-5-3----7-5-5--2s3------------|
E|----------------------------------------------3p0-|
C|----0------0-----0----0-----0-----0----4-4--0-----|
G|--------------------------------------------------|


A|-------------------------------------------------------2-|
E|--3-3-0-0-----0-0----3-3-0-0------0-0----3-3-0-0---0-0-3-|
C|----------2-2-----------------2-2---------------2-2----4-|
G|-------------------------------------------------------0-|



Outro:
       accel.
A|-0-7-5-5----7-5--5-5-3--3-2-3-2-----------7-5--5-5-3--------|
E|-0-0-------------------------------3------------------------|
C|------------4------4------0-----0---------4------4----------|
G|------------------------------------------------------------|

                        Em
A|--3-2-3--10----------12-10-------3-3-2-0-2-3---2--3-2-3-2--------7--|
E|----------------8-8--------8-8-----------------3----------3---3-----|
C|----0-------0---------0------0-----------------4-----------------4--|
G|-----------------------------------------------0--------------------|

A|--5-5-3----3-2-3-2--------7-5--5-5-3----3-2-3-10-----------12-10----|
E|----------------------3-----------------------------8-8----------8-8|
C|----4--------0-----0------4------4--------0------0---------0-------0|
G|--------------------------------------------------------------------|

  rit           Em
A| -3-3-2-0-2-3-----2---2---2-----------------------------------------|
E|-----------------3---3----3-----------------------------------------|
C|----------------0---4-----4-----------------------------------------|
G|--------------------------0-----------------------------------------|
              ↑

************************************

| x    Dead note
| h    Hammer-on
| p    Pull-off
| ~    Vibrato
| rit.  slow down
| accel. speed up(accelerando)
| ↑    upstrum
| ↓    downstrum

************************************

Almost there ...

Sign in to get your own page with links to favourite songs and more. You are just one click away...

Login with Facebook Login with Google