Log in

One click and you are in

Login with Facebook Login with Google

Why sign up and log in

Guitar Tabs Explorer
Misc Cartoons bass tabs for The world god only knows ost 03 - now playing

The World God Only Knows Ost 03 - Now Playing bass tab by Misc Cartoons

Misc Cartoons bass tabs for The world god only knows ost 03 - now playing

Bass tabs

Tabbed by: umar167
E-mail: Contact me through twitter instead @umar_167

Tuning: Standard EADG
https://www.youtube.com/watch v=l2J8hLiRDGo
0:00

G|---------------------------------------------|
D|-------8---7--7------------------8---7--7----|
A|----------------6-------------------------6--| Wait 4 beats
E|-8---8-------------13--11--8---8-------------|

0:16

G|---------------------------------------------|
D|-------8---7--7------------------8---7--7----|
A|----------------6-------------------------6--|
E|-8---8-------------13--11--8---8-------------|

G|---------------------------------------------|
D|-------8---7--7------------------8---7--7----|
A|----------------6-------------------------6--| Wait 8 beats
E|-8---8-------------13--11--8---8-------------|

0:48

G|---------------------------------------------|
D|-------8---7--7------------------8---7--7----|
A|----------------6-------------------------6--|
E|-8---8-------------13--11--8---8-------------|


G|---------------------------------------------|
D|-------8---7--7------------------8---7--7----|
A|----------------6-------------------------6--| Wait 8 beats
E|-8---8-------------13--11--8---8-------------|

1:20

G|----------------------------------------------------|
D|-------8---7--7------------------8---7--7-----------|
A|----------------6-------------------------6---------|
E|-8---8-------------13--11--8---8-------------13--7--|

G|------------------------------------------------------|
D|-------8---7--7------------------8---7--7-------------|
A|----------------6-------------------------6-----------|

Almost there ...

Sign in to get your own page with links to favourite songs and more. You are just one click away...

Login with Facebook Login with Google