Log in

One click and you are in

Login with Facebook Login with Google

Why sign up and log in

Guitar Tabs Explorer
Misc Cartoons guitar chords for The promised neverland - isabellas lullaby ukulele

The Promised Neverland - Isabellas Lullaby Ukulele chords by Misc Cartoons

Misc Cartoons guitar chords for The promised neverland - isabellas lullaby ukulele

Guitar chords

Tuning: G C E A (G C E A)


intro:

A|------5------6------8------6------5-----6-----8----6-----------------------|
E|--6---6---6--6--6---6---6--6---6--6--6--6--6--6----6-----------------------|
C|------5------6------8------6------5-----6-----8----6-----------------------|
G|---------------------------------------------------------------------------|

verse 1:

A|-----------0N--5--3N--1--0N---------0--------------------------------------|
E|-----2N-------------------------1N-------0N--------------------------------|
C|--2------------------------------------------------2N----------------------|
G|---------0------------------------------------0----------------------------|

A|----0--1--3N--1--0-------7--3N--0--3N--5-0--3N--5-0-----------3---0N-------|
E|---------------------------------------------------------------------------|
C|--2------------------------------------------------------2-----------------|
G|----------------------0-------------------------------0--------------------|


pre-chorus:

A|------------0N--5--3N--1--0N----------0--3N---0---5------------------------|
E|----2N---------------------------1-----------------------------------------|
C|--2------------------------------------------------------------------------|
G|---------0-----------------------------------------------------------------|

A|-5-8N-7-3-0-5N--12--7N-------------------------------0N---12N--------------|
E|-----------------------------0-1-0----------------0N-----------------------|
C|-----------------------0N--2---------2--0--1--0N---------------------------|
G|---------------------------------------------------------------------------|



A|--0-5-7-8N--7--5-3-0-----------3--0N--------------------1N--0-----0N-------|
E|-----------------------------1----------0--1-------------------------------|
C|-------------------------------------2------------0------------------------|
G|----------------------0--0N--------------------0-----0----------0----------|

A|-0-5-7-8N--7-8--10---10---13N--12--10--8-5-7-8N-10-12--7--3-0-5---12--7----|
E|-------------------3-------------------------------------------------------|
C|---------------------------------------------------------------------------|
G|---------------------------------------------------------------------------|


outro:

A|-0-5-7-8N-7--5-3-0-----------3--0N--------------------1N--0----0N----------|
E|-------------------------1-------------0--1--------------------------------|
C|------------------------------------2-----------0--------------------------|
G|-------------------0--0N---------------------0-----0---------0-------------|

A|-0-5-7-8N--7-8-10----10--13N-12-10-8----15-12------------------------------|
E|------------------3----------------------------10--------------------------|
C|---------------------------------------------------------------------------|
G|---------------------------------------------------------------------------|


************************************

| N  Tremolo

************************************

Almost there ...

Sign in to get your own page with links to favourite songs and more. You are just one click away...

Login with Facebook Login with Google