Log in

One click and you are in

Login with Facebook Login with Google

Why sign up and log in

Guitar Tabs Explorer
Misc Cartoons bass tabs for The princess and the frog - almost there

The Princess And The Frog - Almost There bass tab by Misc Cartoons

Misc Cartoons bass tabs for The princess and the frog - almost there

Bass tabs

Tuning: Standard (E A D G)

* The two triplets under the asterisk in the 2nd chorus marked with | |
are played with a slightly different rhythm (1,2,3,x, 1,2,3,x)
Verse 1:
No bass come in at:
...closer and closer...
G|---------0-2-3-4-|
D|-0-2-3-4---------|
A|-----------------|
E|-----------------|


Pre-Chorus:
And I'm almost...     people down here...
G|-5-4-3-2-------------------|-0-1-1-2-2---------------0-2-0-------|
D|---------(5)-3-2-2-0-2-3-4-|-----------2-2-----0-2-4-------2-0---|
A|---------------------------|---------------3-0-----------------2-|
E|---------------------------|-------------------------------------|


Chorus:
Trials and....     there ain't nothing...
G|-------------------------|---------------------------5-3-2-1-/5-5------|
D|-----------3-2-2-0-x-3-4-|-5----5-6---6-7--------0-5---------------5-5-|
A|-3-2-1-0-0---------------|-----------------7-0-7-----------------------|
E|-------------------------|---(3)---(4)---------------------------------|


Verse 2:
I remember...        ...but you've gotta
G|-----------5--------------------|-0-1-2-2-----------------0-------|
D|-----4-5-5--(5)-3-3-2-2-0-2-3-4-|---------2-2-----0-0-2-0---------|
A|---3----------------------------|-------------3-0-----------0-1-2-|
E|-3------------------------------|---------------------------------|

So I'll work...  ...just doing what...
G|--------5-------------|-0-0-1-1-2-2-----------------0-2-3-4-|
D|----------4-3-2-0-2-4-|-------------2-2-----0-2-3-4---------|
A|-3--3-3---------------|-----------------3-0-----------------|
E|--3-------------------|-------------------------------------|

Chorus:
And I'm almost...   ...people down here...    *
G|-5-4-3-2---------------|-------------------------------------------------|
D|---------3-2-2-0-2-3-4-|-5----6----7---------------------------5---------|
A|-----------------------|-------------6h7---|5----|-|3-5-3|-0h5---3-1-0---|
E|-----------------------|--(3)--(4)-------5-|--5-3|---------------------4-|


Instrumental:
G|------------------------|
D|------------------------|
A|-3-1-0----3-1-0---------|
E|-------4--------4-3-3-3-|


Chorus:
No bass come in at:

..climbed a mountain... I'm almost there
G|---------------------|---------------------0-2-3-4-|
D|-------------5-------|-2-0---------0-2-3-4---------|
A|-----0-2-3-5---3-3-0-|-------3-3-0-----------------|
E|-3-4-----------------|-----3-----------------------|


Outro:
...there!
G|-5-5-3-3-2-2-1-1-0--------------3-3-2-1-0-------|
D|-------------------5-------5----------------5---|
A|---------------------7-6-5----3-----------5---3-|
E|------------------------------------------------|


************************************

| x  Dead note
| h  Hammer-on
| /  Slide up
| ~  Vibrato

************************************

Almost there ...

Sign in to get your own page with links to favourite songs and more. You are just one click away...

Login with Facebook Login with Google