Log in

One click and you are in

Login with Facebook Login with Google

Why sign up and log in

Guitar Tabs Explorer
Misc Cartoons chords for The owl house - end credits theme ukulele

The Owl House - End Credits Theme Ukulele chords by Misc Cartoons

Misc Cartoons chords for The owl house - end credits theme ukulele

Guitar chords

Tuning: G C E A (G C E A)

  Gb      Bbm
A|----------6--4--1------1-2-4-1----|
E|------2------------1--------------|
C|----------------------------------|
G|--1-------------------------------|

  Gb     Bbm
A|-----6--4--1------1-2-4-1---------|
E|--2------------1------------------|
C|----------------------------------|
G|----------------------------------|

  Cb       Db
A|------4--1------------------------|
E|------------------1-2-1------2----|
C|--3---------------------3-1-------|
G|--------------1-------------------|

    Cb    Db
A|------4--1------------------------|
E|-----------------1-2-1-------2----|
C|-----------------------3-1--------|
G|-------------1--------------------|

  Gb      Bbm
A|------6--4--1------1-2-4-1--------|
E|--2------------1------------------|
C|----------------------------------|
G|----------------------------------|

  Gb       Bbm
A|-----6--4--1------1-2-4-1---------|
E|--2-------------------------------|
C|----------------------------------|
G|----------------------------------|

  Cb       Db
A|------4--1------------------------|
E|------------------1-2-1------2----|
C|--3---------------------3-1-------|
G|--------------1-------------------|

  Gb
A|--1-------------------------------|
E|--2-------------------------------|
C|--1-------------------------------|
G|--4-------------------------------|

Almost there ...

Sign in to get your own page with links to favourite songs and more. You are just one click away...

Login with Facebook Login with Google