Log in

One click and you are in

Login with Facebook Login with Google

Why sign up and log in

Guitar Tabs Explorer
Misc Cartoons bass tabs for The midnight gospel - the hearse song

The Midnight Gospel - The Hearse Song bass tab by Misc Cartoons

Misc Cartoons bass tabs for The midnight gospel - the hearse song

Bass tabs

Tuning: Standard (E A D G)

Death makes a meal of us all    Into the depths you will fall

G|---5-5-----3-3-------------------5-5-----3-3---------------12------|
D|-------------------6-6-----5-5-------------------6-6-----9---------|
A|-------------------------------------------------------------------|
E|-------------------------------------------------------------------|

To the worms, your coffin is like No matter how rich or how poor
a wet bar             you are

G|---5-5-----3-3-------------------5-5-----3-3-----6-6-----12-12-----|
D|-------------------6-6-----9-9-------------------------------------|
A|-------------------------------------------------------------------|
E|-------------------------------------------------------------------|

You all end up in the ground
And the worms are not found

G|---5-5-----3-3-----6-6-----9-9-----9-9-----|
D|-------------------------------------------|
A|-------------------------------------------|
E|-------------------------------------------|


They put you in a big black box  And cover you up with dirt and rocks

(this bassline is the same until the end)
G|---5-5-----3-3-------------------5-5-----3-3-----------------------|
D|-------------------6-6-----5-5-------------------6-6-----9-9-------|
A|-------------------------------------------------------------------|
E|-------------------------------------------------------------------|

All goes well for about a week   Until your coffin begins to leak

G|---5-5-----3-3-------------------5-5-----3-3-----------------------|
D|-------------------6-6-----5-5-------------------6-6-----9-9-------|
A|-------------------------------------------------------------------|
E|-------------------------------------------------------------------|


The worms crawl in, the worms crawl out, etc
G|---5-5-----3-3---------------------|
D|-------------------6-6-----9-9-----|
A|-----------------------------------|
E|-----------------------------------|

Almost there ...

Sign in to get your own page with links to favourite songs and more. You are just one click away...

Login with Facebook Login with Google