Log in

One click and you are in

Login with Facebook Login with Google

Why sign up and log in

Guitar Tabs Explorer
Misc Cartoons bass tabs for The lorax - let it grow

The Lorax - Let It Grow bass tab by Misc Cartoons

Misc Cartoons bass tabs for The lorax - let it grow

Bass tabs

Tuning: Standard (E A D G)


Verse 1: 0:24

G|----------------------------------------------------------|
D|-----------------------------------------------5-3--------|
A|-----------------3-3-5-5-7-7-7-7-5-5-3-3-5-7-3-----5------|
E|-3-3-3-3-5-5-5-5------------------------------------------|

Chorus: 0:38
"Let it grow"
G|---------------------------------------------------|
D|---------------------------------------------------|
A|-----------------3-3-5-5-7-7-7-7-5-5-3-3-5-7-3~----|
E|-3-3-3-3-5-5-5-5-----------------------------------|


Verse 2: 1:00
"I say let it grow"
G|---------------------------------------------------------|
D|---------------------------------------------5-3---------|
A|-5-7-3-------------5-5-7-7-5-5-3-3-5-5-7-7-3-----5-3-----|
E|-----------3-3-5-5-----------------------------------3~--|


Chorus:
"Let it grow" 1:14
G|---------------------------------------------=----|
D|--------------------------------------------------|
A|-----------------3-3-5-5-7-7-7-7-5-5-3-3-5-7-3~---|
E|-3-3-3-3-5-5-5-5----------------------------------|


Bridge: 2:03

"Let it grow"
G|----------------------------------------------------------------|
D|------------------------------------7-5-----5-3-----3-5---------|
A|----------------------------------------7-5-----5-3-----3-5-----|
E|-3--5--7--3--5--7--3--5--7--3--5--7-----------------------------|


Chorus:
"Let it grow" 2:21
G|--------------------------------------------------------------------|
D|-------------------------------------------------9--7---------------|
A|-----------------3-3-5-5-7-7-7-7-5-5-3-3-5-7-3-5-------9--7--6--4~--|
E|-3-3-3-3-5-5-5-5----------------------------------------------------|


************************************

| ~ Vibrato

************************************

Almost there ...

Sign in to get your own page with links to favourite songs and more. You are just one click away...

Login with Facebook Login with Google