Log in

One click and you are in

Login with Facebook Login with Google

Why sign up and log in

Guitar Tabs Explorer
Misc Cartoons bass tabs for The little mermaid - under the sea

The Little Mermaid - Under The Sea bass tab by Misc Cartoons

Misc Cartoons bass tabs for The little mermaid - under the sea

Bass tabs

Tuning: Standard (E A D G)


Intro:
G|---------------------------------------------------------------|
D|---------------------------------------------------------------|
A|-----------5-5-------------------------------------------------| x 4
E|--3-3-3-33-----3-----------------------------------------------|

G|---------------------------------------------------------------|
D|---------------------------------------------------------------| x 2
A|--3-3--------5-5-----------------------------------------------|
E|-------3-3--------3-3------------------------------------------|
Faint stop at the chorus start ‘under da ‘sea’’ ? sea start chord
G|---------------------------------------------------------------|under da
D|---------------------------------------------------------------|sea
A|---3-3-3-------5-5-5----------------3-3-3-5-5-5----------------|
E|---------3-3-3-------3-3-3-xx-3-3-3------------3-3-3-3-3-3-----|

G|---------------------------------------------------------------|up in the
D|-----------------2-2-------------------------------------------|shore- part
A|--------3-3--5-5---------3-3-5-5-----5-5-----------------------|
E|---3-3---------------5-5---------3-3-----3-3-------------------|

G|---------------------------------------------------------------|down here
D|---------------------------------------------------------------|dem fish r
A|-------5----------5----------5----------5----------------------|happy
E|--3-3----3-3--3-3---3-3--3-3---3-3--3-3---3-3------------------|

G|---------------------------------------------------------------|dey sad
D|---------------------------------------------------------------|
A|-------5------3-3---5-5---3-3----------------------------------|
E|--3-3----3-3-----3-3---3-3---3-3-------------------------------|

Chorus again but add G in front
G|---------------------------------------------------------------|
D|----------------------------2----------------------------------|
A|-----3---5----3-5--------3-5--0-0-3-3-5-5-3-3----5-5--------3-3|
E|12\3---3--3-3-----3-3--3---------------------3-3----3-3-3-3----|

G|---------------------------------------------------------------|
D|---------------3-----------------------------------------------|
A|5-5----3-3-5-5--0-0-3-3-5-5------------------------------------|
E|----3-3---------------------12\3-------------------------------|

Bridge:
G|---------------------------------------------------------------|each line
D|------------------------------------2--------------------------|1 note
A|-5-5-3-5-3-5--5-3-5-------------5--0-0-------------------------|:>
E|--3-3-3-3----3-3-3-3-----------3-3-----------------------------|
     ^SOUL^de strings

LAST CHORUS
G|---------------------------------------------------------------|each line
D|-------2-----2-------2-------2---2------2---2--------2---2-----|1 note
A|---5-0--0--5--0-0--5-------5----0-0-0-5--0-5--1 -7 -5---0-0-----|:>
E|12\-------------------1 -7 ------------------------------------|
If 2(D string) doesn’t work use ^ if doesn’t work out ^ if 7? Doesn’t work use
0 (E) or                       use note D|---3--|        use A|---2--|


************************************

| x Dead note
| \ Slide down


************************************

Almost there ...

Sign in to get your own page with links to favourite songs and more. You are just one click away...

Login with Facebook Login with Google