Log in

One click and you are in

Login with Facebook Login with Google

Why sign up and log in

Guitar Tabs Explorer
Misc Cartoons guitar tabs for The little mermaid - kiss the girl

The Little Mermaid - Kiss The Girl tab by Misc Cartoons

Misc Cartoons guitar tabs for The little mermaid - kiss the girl

Guitar tabs

  • Capo on 4th
Tuning: Standard (E A D G B E)

Difficulty: Intermediate


Verse 1:
e|---3-------------------3-------------------------------0-------------------------------|
A chord diagramBB|---0---------------0---0-----------------------0---0---1---1---1---1-------------------|
A chord diagramG+G|---0---0---2---2-------0---0---0---0---0---2-----------0-------------------------------|
A chord diagramD MajorD|---0-------------------0-------------------------------2---------------2---2---2---2---|
A chord diagramA augmentedA|---2-------------------2-------------------------------3-------------------------------|
A chord diagramE MajorE|---3-------------------3---------------------------------------------------------------|
       There...        Sitting...                  She...                      But...

|---------------3---------------2-------------------0-----------------------------------|
|---1---1---3---0---0---3---3---3---3---3---0---0---1---1---1---1---1---1---0-----------|
|---------------0---------------2-------------------0-----------------------------------|
|---------------0---------------0-------------------2-----------------------------------|
|---------------2-----------------------------------3-----------------------------------|
|---------------3-----------------------------------------------------------------------|
              -bout...         Don't...            Dyin'...

|---3-----------------------------------------------------------------------------------|
|---0---0-------------------------------------------------------------------------------|
|---0-------2---0-----------------------------------------------------------------------|
|---0-----------------------------------------------------------------------------------|
|---2-----------------------------------------------------------------------------------|
|---3-----------------------------------------------------------------------------------|
       Kiss...


Verse 2:
|---3-------------------3---------------------------0-----------------------------------|
|---0---------------0---0---0---0---0---0---1---0---1---1---1---1---1-------------------|
|---0---0---2---2-------0---------------------------0-----------------------------------|
|---0-------------------0---------------------------2-------------------2---2---2---2---|
|---2-------------------2---------------------------3-----------------------------------|
|---3-------------------3---------------------------------------------------------------|
       Yes...          Look...                     Possible...                 There...

|---------------3---------------2-------------------0-----------------------------------|
|---1---1---3---0---0---3---3---3---3---3---0---0---1---1---1---1---1---0---------------|
|---------------0---------------2-------------------0-----------------------------------|
|---------------0---------------0-------------------2-----------------------------------|
|---------------2-----------------------------------3-----------------------------------|
|---------------3-----------------------------------------------------------------------|
               Ask...          Take...             Single...

|---3-----------------------------------------------------------------------------------|
|---0---0-------------------------------------------------------------------------------|
|---0-------2---0-----------------------------------------------------------------------|
|---0-----------------------------------------------------------------------------------|
|---2-----------------------------------------------------------------------------------|
|---3-----------------------------------------------------------------------------------|
       Kiss...

Chorus:
|---3---------------------------0---2---3---0---0---0---0-------------------0-----------|
|---0---3---3---3---3---3---3---1-----------------------0---3---3---3---3---------------|
|---0---------------------------0-----------------------0-------------------------------|
|---0---------------------------2-----------------------0-------------------------------|
|---2---------------------------3-----------------------2-------------------------------|
|---3---------------------------------------------------3-------------------------------|
       Sha...                  My...                   Boy...

|---2---0-----------3---------------------------0---2---3---0---0---0---3---------------|
|---3-------3---3---0---3---3---3---3---3---3---1-----------------------0---3-----------||
|---2---------------0---------------------------0-----------------------0-------0-------|
|---0---------------0---------------------------2-----------------------0---------------|
|-------------------2---------------------------3-----------------------2---------------|
|-------------------3---------------------------------------------------3---------------|
       Kiss...         Sha...                  Ain't...                Shame...

|---------------3-----------------------------------------------------------------------|
|---------------0-----------------------------------------------------------------------|
|---0---0---2---0----2---0--------------------------------------------------------------|
|---------------0-----------------------------------------------------------------------|
|---------------2-----------------------------------------------------------------------|
|---------------3-----------------------------------------------------------------------|
               Miss...


Verse 3:
|---3-------------------3--------------------------0------------------------------------|
|---0---------------0---0----------------------0---1---1---1---1---1----------1---1-----|
|---0---0---2---2-------0---0---0---0--0---2-------0------------------------------------|
|---0-------------------0--------------------------2------------------2---2-------------|
|---2-------------------2--------------------------3------------------------------------|
|---3-------------------3---------------------------------------------------------------|
       Now's...        Floating...                Boy...

|-----------3---------------2-------------------0---------------------------------------|
|---1---3---0---0---3---3---3---3---3---0---0---1---1---1---1---1---1---0---------------|
|-----------0---------------2-------------------0---------------------------------------|
|-----------0---------------0-------------------2---------------------------------------|
|-----------2-----------------------------------3---------------------------------------|
|-----------3---------------------------------------------------------------------------|
           Better...       Say...              Won't...

|---3-----------------------------------------------------------------------------------|
|---0---0-------------------------------------------------------------------------------|
|---0-------2---0-----------------------------------------------------------------------|
|---0-----------------------------------------------------------------------------------|
|---2-----------------------------------------------------------------------------------|
|---3-----------------------------------------------------------------------------------|
       Kiss...


Chorus:
|---3---------------------------0---2---3---0---0---0---0-------------------0-----------|
|---0---3---3---3---3---3---3---1-----------------------0---3---3---3---3---------------|
|---0---------------------------0-----------------------0-------------------------------|
|---0---------------------------2-----------------------0-------------------------------|
|---2---------------------------3-----------------------2-------------------------------|
|---3---------------------------------------------------3-------------------------------|
       Sha...                  Don't...                Mood...

|---2---0-----------3---------------------------0---2---3---0---0---0---3---------------|
|---3-------3--3----0---3---3---3---3---3---3---1-----------------------0---3-----------|
|---2---------------0---------------------------0-----------------------0-------0-------|
|---0---------------0---------------------------2-----------------------0---------------|
|-------------------2---------------------------3-----------------------2---------------|
|-------------------3---------------------------------------------------3---------------|
       Kiss...         Sha...                  Don't...                Hide...

|---------------3-----------------------------------------------------------------------|
|---------------0-----------------------------------------------------------------------|
|---0---0---2---0----2---0--------------------------------------------------------------|
|---------------0-----------------------------------------------------------------------|
|---------------2-----------------------------------------------------------------------|
|---------------3-----------------------------------------------------------------------|
               Kiss...

|---3---------------------------0---2---3---0---0---0---0-------------------0-----------|
|---0---3---3---3---3---3---3---1-----------------------0---3---3---3---3---------------|
|---0---------------------------0-----------------------0-------------------------------|
|---0---------------------------2-----------------------0-------------------------------|
|---2---------------------------3-----------------------2-------------------------------|
|---3---------------------------------------------------3-------------------------------|
       Sha...                  Float...                To...

|---2---0-----------3---------------------------0---2---3---0---0---0---3---------------|
|---3-------3---3---0---3---3---3---3---3---3---1-----------------------0---3-----------|
|---2---------------0---------------------------0-----------------------0-------0-------|
|---0---------------0---------------------------2-----------------------0---------------|
|-------------------2---------------------------3-----------------------2---------------|
|-------------------3---------------------------------------------------3---------------|
       Kiss...         Sha...                  Music...                Music...

|---------------3-----------------------------------------------------------------------|
|---------------0-----------------------------------------------------------------------|
|---0---0---2---0----2---0--------------------------------------------------------------|
|---------------0-----------------------------------------------------------------------|
|---------------2-----------------------------------------------------------------------|
|---------------3-----------------------------------------------------------------------|
               Kiss...


Outro:
|---------------3-----------------------------------------------------------------------|
|---------------0-----------------------------------------------------------------------|
|---0---0---2---0----2---0--------------------------------------------------------------|x4
|---------------0-----------------------------------------------------------------------|
|---------------2-----------------------------------------------------------------------|
|---------------3-----------------------------------------------------------------------|
               Kiss...

Other versions of The Little Mermaid - Kiss The Girl

The little mermaid - kiss the girl ukuleleChords

Almost there ...

Sign in to get your own page with links to favourite songs and more. You are just one click away...

Login with Facebook Login with Google