Log in

One click and you are in

Login with Facebook Login with Google

Why sign up and log in

Guitar Tabs Explorer
Misc Cartoons guitar chords for The lion king - i just cant wait to be king ukulele

The Lion King - I Just Can't Wait To Be King Ukulele chords by Misc Cartoons

Misc Cartoons guitar chords for The lion king - i just cant wait to be king ukulele

Guitar chords

  • Capo on 1st
Tuning: G C E A (G C E A)

Difficulty: Intermediate


Intro:
G |--------8--8--8p5---------|---------8--8--8h10----------|---------8--8--8p5--------|
C |----5---------------6h8---|----5----------------10p8----|----5---------------6h8---|
E |--5-----------------------|--5--------------------------|--5-----------------------|
A |------5-------------------|------5----------------------|------5-------------------|

G |---------8--8--8h10---------|
C |----5----------------10p8---|
E |--5-------------------------|
A |------5---------------------|

************************************

| h Hammer-on
| p Pull-off

************************************

Almost there ...

Sign in to get your own page with links to favourite songs and more. You are just one click away...

Login with Facebook Login with Google