Log in

One click and you are in

Login with Facebook Login with Google

Why sign up and log in

Guitar Tabs Explorer
Misc Cartoons guitar tabs for The life of death theme

The Life Of Death Theme tab by Misc Cartoons

Misc Cartoons guitar tabs for The life of death theme

Intro

Marsha Onderstijn - the life of death

1:-------------------------------------|
2:-----3---------------------3---------|
3:---2---2-------3--------2-----2---2--|
4:-0-----------5---5----0---0-----0----|
5:-----------5--------0----------------|
6:-------------------------------------|


1:-------------------------------------|
2:-----3---------------------3---------|
3:---2---2-------3--------2-----2---2--|
4:-0-----------5---5----0---0-----0----|
5:-----------5--------0----------------|

Almost there ...

Sign in to get your own page with links to favourite songs and more. You are just one click away...

Login with Facebook Login with Google