Log in

One click and you are in

Login with Facebook Login with Google

Why sign up and log in

Guitar Tabs Explorer
Misc Cartoons guitar chords for Steven universe future - being human ukulele

Steven Universe Future - Being Human Ukulele chords by Misc Cartoons

Misc Cartoons guitar chords for Steven universe future - being human ukulele

Guitar chords with lyrics

Tuning: G C E A (G C E A)


Intro:

A|-------------------------------------------|
E|--2---2---2---0---2---0---2----------------|
C|-------------------------------4---4---2---|
G|-------------------------------------------|

A|--------------------------------------------|
E|------------------2---2---0---2---2---0---2-|
C|-4---4---2---4------------------------------|
G|--------------------------------------------|

A|-----------------0---------------7---4---2-|
E|-------------3-------2---0-------0---------|
C|-4---4---2-------------------2---0---------|
G|---------------------------------0---------|


Verse 1:
       G
Just A Little Time
       F#m
Just A Little Something Else Instead
       G
Just A Little Time
       F#m      Am
Just A Little Something Up A Head


Chorus:
  D      G
I'm Dreaming of
   F#m
Being
   G
Being
   F#m
Being
Am  D  G
Being Human


Verse 2:
G
Just A Little Time
F#m
Just A Little Something That I Need
G
Just A Little Time
F#m          Am
Just A Little Feeling Gaining Speed


Chorus:
  D      G
I'm Dreaming of
   F#m
Going
   G
Going
   F#m
Going
Am  D       G
Going Somewhere else
   F#m
Being
   G
Being
   F#m
Being
Am  D  G
Being Human

Almost there ...

Sign in to get your own page with links to favourite songs and more. You are just one click away...

Login with Facebook Login with Google