Log in

One click and you are in

Login with Facebook Login with Google

Why sign up and log in

Guitar Tabs Explorer
Misc Cartoons guitar chords for Steven universe - i could never be ready ukulele

Steven Universe - I Could Never Be Ready Ukulele chords by Misc Cartoons

Misc Cartoons guitar chords for Steven universe - i could never be ready ukulele

Guitar chords

Tuning: G C E A (G C E A)


Chords Needed:
  (A)  (D) (Dm)
A|--2--|--0--|--3--|
E|--3--|--2--|--0--|
C|--2--|--2--|--0--|
G|--0--|--2--|--0--|

Intro:
A
I could never be,
D
I could never be,
Dm        A
I could never be ready for this.

  A    D    Dm     A
A|---------------------------------------|
E|-0--0-----2--2-----1--1---1---0--0---0-|
C|-1--1-1---2--2-2---2--2-2-----1--1-1---|
G|-2--2-----2--2-----2--2-------2--2-----|

I could never be, I could never be, I could never be ready.

  A    D     Dm
A|---------------------------------------|
E|-0--0---2--2---2---1--1---1---2--2-2---|
C|-1--1---2--2-2-----2--2-2-----3--3---3-|
G|-2--2---2--2-------2--2-------2--2-----|

Things start and things end, and isn't it lovely in theory? But...

  A    D    Dm     A
A|--------------------------------|
E|-0--0-----2--2-----1--1---1---0-|
C|-1--1-1---2--2-2---2--2-2-----1-|
G|-2--2-----2--2-----2--2-------2-|

I could never be, I could never be, I could never be ready.

A|-4---4----------------------------|-4---4-------------------------|
E|-2---2-2-----1--1-1-----0-------3-|-2---2-2-----1--1-1-----0--4/5-|
C|-2-------2---2--2---2---1-------1-|-2-------2---2--2---2---1------|
G|-2-----------1--1-------2-------2-|-2-----------1--1-------2------|

A|-4---4-------2--2-2--------2-----|
E|-2---2-2-----0--0---0----0-----0-|
C|-2-------2---2--2------2-------1-|
G|-2-----------------------------0-|

A|-4---4--------------------|
E|-2---2-2-----1--1-1-----0-|
C|-2-------2---2--2---2---1-|
G|-2-----------1--1-------2-|

Almost there ...

Sign in to get your own page with links to favourite songs and more. You are just one click away...

Login with Facebook Login with Google