Log in

One click and you are in

Login with Facebook Login with Google

Why sign up and log in

Guitar Tabs Explorer
Misc Cartoons guitar chords for Steven universe - escapism ukulele

Steven Universe - Escapism Ukulele chords by Misc Cartoons

Misc Cartoons guitar chords for Steven universe - escapism ukulele

Guitar chords with lyrics

Tuning: G C E A (G C E A)

Difficulty: Intermediate

Chords:
Cmaj7: 0002
Fmaj: 5557
E:   4447
E7:  4445
Dm6:  7575
Ddim: x545
Intro:

A|-----2-------------------7-----x-----|
E|---------0-----3---------5-----x-----| x4
C|-0---------0-----4-5-----------x-----|
G|-------0-----2-----------------x-----|
  \ 3 / \ 3 / \ 3 /


Verse:
  Cmaj7       Fmaj7   Cmaj7     Fmaj7
 I guess I'll have to face that in this awful place
A|---2------------------7---------2--------------7---|
E|---0------------------5---------0--------------5---|
C|-0------------------5---------0--------------5-----|
G|---------------------------------------------------|

   Cmaj7      Fmaj7  E E7
  I shouldn't show a trace of doubt.
A|------2----------------7--------7---5--|
E|------0----------------5--------4---7--|
C|----0----------------5--------4---4----|
G|---------------------------------------|

Verse:
  Am         D7   Am      D7
But pulled against the grain I feel a little pain
A|----0------------------3-------0-------------3-|
E|----0------------------2-------0-------------2-|
C|--0------------------2-------0-------------2---|
G|-----------------------------------------------|

     Am        D7    Fmaj7
  that I  would rather do  without.
A|---------0----------------3--------7---7--|
E|---------0----------------2--------5---5--|
C|-------0----------------2--------5---5----|
G|------------------------------------------|


Chorus:
I'd rather be

  Fmaj7 Dm6  Cmaj7 D7  Fmaj7
  free,    free,   free.
A|---7-----5-----2---3-0----7---7---7---7--|
E|---5-5---4-4---0-0-2--2---5---5---5---5--|
C|-5-----5-----0-----2----5---5---5---5----|
G|-----------------------------------------|


Chorus:
I'd rather be

  Fmaj7 Dm6  Cmaj7 D7  Fmaj7
  free,    free,   free.
A|---7-----5-----2---3-0----7---7---7---7--|
E|---5-5---4-4---0-0-2--2---5---5---5---5--|
C|-5-----5-----0-----2----5---5---5---5----|
G|-----------------------------------------|


Outro:
  Fmaj7 Dm6  Cmaj7 D7  Fmaj7     Ddim
  free,    free,   free   from here
A|---7-----5-----2---3-0----7---7-------5-|
E|---5-5---4-4---0-0-2--2---5---5-------4-|
C|-5-----5-----0-----2----5---5---------5-|
G|----------------------------------------|

Almost there ...

Sign in to get your own page with links to favourite songs and more. You are just one click away...

Login with Facebook Login with Google