Log in

One click and you are in

Login with Facebook Login with Google

Why sign up and log in

Guitar Tabs Explorer
Misc Cartoons guitar chords for Spongebob squarepants - grass skirt chase ukulele

Spongebob Squarepants - Grass Skirt Chase Ukulele chords by Misc Cartoons

Misc Cartoons guitar chords for Spongebob squarepants - grass skirt chase ukulele

Guitar chords

Tuning: G C E A (G C E A)

A|--------2------------------------------1-0--0-1---1-0----0-----------------|
E|--1--4--4--4---1--4--1-----0-1-0---0-1----------3------1---3-1-0-1-0-------|
C|--2--5-----5---2--5--2---2-------2-----------------------------------------|
G|---------------------------------------------------------------------------|

A|----------------1-0--0-1---1-0----0--------------------1--5-0--------------|
E|----0-1-0---0-1----------3------1---3-1-0--------0-1---1--6-0--------------|
C|--2-------2-------------------------------2-2-0----0-2---------------------|
G|---------------------------------------------------------------------------|

A|----------------1-0--0-1---1-0-----0--------------2------------------------|
E|----0-1-0---0-1----------3------3----3-1-0--1--4--4--4---1--4--1-----------|
C|--2-------2---------------------------------2--5-----5---2--5--2-----------|
G|---------------------------------------------------------------------------|

Almost there ...

Sign in to get your own page with links to favourite songs and more. You are just one click away...

Login with Facebook Login with Google