Log in

One click and you are in

Login with Facebook Login with Google

Why sign up and log in

Guitar Tabs Explorer
Misc Cartoons chords for Spongebob squarepants - ending theme ukulele

Spongebob Squarepants - Ending Theme Ukulele chords by Misc Cartoons

Misc Cartoons chords for Spongebob squarepants - ending theme ukulele

Guitar chords

Tuning: G C E A (G C E A)

Key: E

Difficulty: Novice

Ukulele 1 - Rhythm:

A|------------------------------------------------|
E|----4-----4-----4-----4-----4-----4-----4-----4-|
C|-4--4-----4--4--4-----4--4--4-----4--4--4-----4-|
G|----4--4--4-----4--4--4-----4--4--4-----4--4--4-|

A|------------------------------------------------|
E|----4-----4-----4-----4-----4-----4-----4-----4-|
C|-4--4-----4--4--4-----4--4--4-----4--4--4-----4-|
G|----4--4--4-----4--4--4-----4--4--4-----4--4--4-|

A|------------------------------------------------|
E|----4-----4-----4-----4-----4-----4-----4-----4-|
C|-4--4-----4-----4--4--4--4--4-----4--4--4-----4-|
G|----4--4--4--4--4-----4-----4--4--4-----4--4--4-|

A|----6--6--6-----6--6--6-------------------------|
E|-7--7-----7--7--7-----7-----4-----4-----4-----4-|
C|----6-----6-----6-----6-----4--4--4--4--4-----4-|
G|-------------------------4--4-----4-----4--4--4-|

A|----------------------------6--6--6-----6--6--6-|
E|----4-----4-----4-----4--7--7-----7--7--7-----7-|
C|-4--4-----4--4--4-----4-----6-----6-----6-----6-|
G|----4--4--4-----4--4--4-------------------------|

A|----6--6--6-----6--6--6-------------------------|
E|-7--7-----7--7--7-----7-----4-----4-----4-----4-|
C|----6-----6-----6-----6-----4--4--4--4--4-----4-|
G|-------------------------4--4-----4-----4--4--4-|

A|------------------------------------------------|
E|----4-----4-----4-----4-----4-----4-----4-----4-|
C|-4--4-----4--4--4-----4--4--4-4-4-4--4--4-4-4-4-|
G|----4--4--4-----4--4--4-----4-----4-----4-----4-|

A|----------------------------6--6--6-----6--6--6-|
E|----4-----4-----4-----4--7--7-----7--7--7-----7-|
C|-4--4-4-4-4--4--4-4-4-4-----6-----6-----6-----6-|
G|----4-----4-----4-----4-----------------4-------|

A|------------------------------------------------|
E|----4-----4-----4-----4-----4-----4-----4-----4-|
C|-4--4-----4--4--4-----4--4--4-----4--4--4-----4-|
G|----4--4--4-----4--4--4-----4--4--4-----4--4--4-|

A|------------------------------------------------|
E|----4-----------------------4-------------------|
C|-4--4--------------------4--4-------------------|
G|----4--4--------------------4--4----------------|

A|----------------6--6--6-------------------------|
E|----4-----4--7--7-----7-----4-----4-------------|
C|-4--4-----4-----6-----6--4--4-----4--4~---------|
G|----4--4--4-----------------4--4--4-------------|

Ukulele 2 - Melody:

A|------------------------------------------------|
E|------------------------------------------------|
C|------------------------------------------------|
G|------------------------------------------------|

A|-------4------------------------4---------------|
E|-7-6-7---7----------------7-6-7---7-------------|
C|------------------------------------------------|
G|------------------------------------------------|

A|-------4------------------------4---------------|
E|-7-6-7---7----------------7-6-7---7-------------|
C|------------------------------------------------|
G|------------------------------------------------|

A|-------6------------6-----------4---------------|
E|-7-5-----5----7-5-----5---7-6-7---7-------------|
C|-----6------------6-----------------------------|
G|------------------------------------------------|

A|-------4------------------7-64-76-47-64-76-47-64|
E|-7-6-7---7--------------------------------------|
C|------------------------------------------------|
G|------------------------------------------------|

A|-7-64-76-47-64~-----------7-64-76-47-64-76-47-64|
E|------------------------------------------------|
C|------------------------------------------------|
G|------------------------------------------------|

A|-7-64-76-47-64~-----------7-7----9-11-9-11-9----|
E|--------------------------4-4----7-7--7-7--7-11-|
C|--------------------------4-4----8-8--8-8--8----|
G|--------------------------4-4-------------------|

A|-7-7----10-10--10--10--9--------6------------6--|
E|-4-4----7--7---7---7------7-5-----5----7-5-----5|
C|-4-4----5--5---5---5----------6------------6----|
G|-4-4--------------------------------------------|

A|-------4------------------------4---------------|
E|-7-6-7---7----------------7-6-7---7-------------|
C|------------------------------------------------|
G|------------------------------------------------|

A|-7-7----9-11-9-11-9------7-7----10-10--10--10--9|
E|-4-4----7-7--7-7--7-11---4-4----7--7---7---7----|
C|-4-4----8-8--8-8--8------4-4----5--5---5---5----|
G|-4-4---------------------4-4--------------------|

A|-------4-----------4---6-7b~--------------------|
E|-7-6-7---7---7-6-7---7--------------------------|
C|------------------------------------------------|
G|------------------------------------------------|


************************************

| b  Bend
| ~  Let Ring

************************************

Almost there ...

Sign in to get your own page with links to favourite songs and more. You are just one click away...

Login with Facebook Login with Google