Log in

One click and you are in

Login with Facebook Login with Google

Why sign up and log in

Guitar Tabs Explorer
Misc Cartoons guitar chords for She-ra theme song ukulele

She-ra Theme Song Ukulele chords by Misc Cartoons

Misc Cartoons guitar chords for She-ra theme song ukulele

Guitar chords

Tuning: G C E A (G C E A)

Tab:

 A-|-0----0-0----------|-0--------5--7-7--|-x--5-5--------2-3-5-7-|-7-5-3-5-3-7-7-|-0-2-3-3--------0-|
 E-|-0--0-----0-0---0--|-5--5-5-----------|-7------8-8-7--------4-|---------------|-0--------0-0-3---|
 C-|-0------------2----|-5----------------|-7-------------------4-|---------------|-0----------------|
 G-|-2-----------------|-5------5---------|-0-------------------4-|---------------|-2----------------|
 A-|-0--0-2-3-3---3--2-|-2-2-2-0-0--------|-0-2-2------0-|-0--|
 E-|-1-----------------|-3---------3-3--3-|-4------0-3---|-0--|
 C-|-0-----------------|-2----------------|-4------------|-0--|
 G-|-3-----------------|-0----------------|-4------------|-2--|


Chords:
Am
We're on the edge of greatness
F
Turning darkness to light
G                E
We're right beside you ready to fight
N.C.          Am
We're gonna win in the end!
Am                F
We must be strong and we must be brave (we must be brave)
     G                         E
We gotta find every bit of strength that we have and never let it go (oh)
      Am
We must be strong!

Almost there ...

Sign in to get your own page with links to favourite songs and more. You are just one click away...

Login with Facebook Login with Google