Log in

One click and you are in

Login with Facebook Login with Google

Why sign up and log in

Guitar Tabs Explorer
Misc Cartoons chords for Seishun buta yarou wa bunny girl senpai no yume wo minai - fukashigi no karte ukulele

Seishun Buta Yarou Wa Bunny Girl Senpai No Yume Wo Minai - Fukashigi No Karte Ukulele chords by Misc Cartoons

Misc Cartoons chords for Seishun buta yarou wa bunny girl senpai no yume wo minai - fukashigi no karte ukulele

Guitar chords

Tuning: G C E A (G C E A)

  Verse:
A - |----0-----0------0-----0-----0----------|
E - |-----------------------------------0--1-|
C - |-2------------2-----------2-------------|
G - |-------0------------0-----------0-------|

A - |----0-----0-----0-----3--1--0-|
E - |------------------------------|
C - |-2-----------2----------------|
G - |-------0-----------0----------|

A - |----0-----0--3--0-----------0-|
E - |----------------------0--1----|
C - |-2----------------------------|
G - |-------0-----------0----------|

A - |----0-----0-----0-------------|
E - |----------------------1-----0-|
C - |-2-----------2-----------1----|
G - |-------0-----------0----------|

  Pre-Chorus:
A - |----------------------0--0--1--1--2--3--------0------|
E - |-0--1--1--2--------0--------------------2--0----2--2-|
C - |----------------3------------------------------------|
G - |-------------0---------------------------------------|

A - |----------0--3-----0-|
E - |-2-----1-------------|
C - |---------------------|
G - |----0-----------1----|

  Chorus:
A - |----0-----0------0-----0-----0----------|
E - |-----------------------------------0--1-|
C - |-2------------2-----------2-------------|
G - |-------0------------0-----------0-------|

A - |----0-----0-----0-----3--1--0-|
E - |------------------------------|
C - |-2-----------2----------------|
G - |-------0-----------0----------|

A - |----0-----0--3--0-----------0-|
E - |----------------------0--1----|
C - |-2----------------------------|
G - |-------0-----------0----------|

A - |----0-----0-----0-------------|
E - |----------------------1-----0-|
C - |-2-----------2-----------1--0-|
G - |-------0-----------0----------|

Almost there ...

Sign in to get your own page with links to favourite songs and more. You are just one click away...

Login with Facebook Login with Google