Log in

One click and you are in

Login with Facebook Login with Google

Why sign up and log in

Guitar Tabs Explorer
Misc Cartoons guitar chords for Rick and morty - evil morty theme ukulele

Rick And Morty - Evil Morty Theme Ukulele chords by Misc Cartoons

Misc Cartoons guitar chords for Rick and morty - evil morty theme ukulele

Guitar chords

Tuning: G C E A (G C E A)

EVIL MORTY LOW G

Part A:
            4X
A|----1-----1--|
E|-------3-----| 4 Times
C|-1-----------|
G|-------------|

A|-----------------|
E|-----4--1--4-----| 3 Times
C|--0-----------0--|
G|-----------------|

A|--------------------------------------2-----2-----2-----2--|
E|--4-----4-----4--1--4-----4--1--4--------4-----------4-----|
C|-----3-----2-----------2-----------2-----------2-----------|
G|-----------------------------------------------------------|

A|--3-----3-----1-----1----------------------------------|
E|--3--3-----3--1--1-----1--4-----4-----3-----3-----3/4--|
C|--3-----------2-----------3--3-----3--2--2-----2--2/3--|
G|--3-----------3-----------3-----------4-----------4/5--|

A|-----------------------------------5-----------|
E|----4--------4------3-------------3------------|
C|-------------3------2-----2------2-------2-----|
G|--5-----5--5-----5--4--4-----4--4-----4-----4--|


Part B:

A|--3-----x--3--1-------x-------------x------2-----x------(2/3)--|
E|--3-----x-----1-------xh4-----3-----xh4----3-----x------(2/3)--|
C|--3-----x-----2----2--x-----2-3---3-x----3-2---2-xh5--5--2/3---|
G|--5--5--x-----3-3-----x---3---3-3---x--3---4-4---x--4----4/5---|

A|-----x--3--1------x------------x------2----x------(2/3)---x--3--1------x--------x---------|
E|-----x-----1------xh4----3-----xh4----3----x------(2/3)---x-----1------xh4------xh4----3--|
C|-----x-----2---2--x---2--3---3-x----3-2--2-xh5--5-2/3-----x-----2---2--x-----2--x----2-3--|
G|--5--x-----3-3----x--3---3-3---x--3---4-4--x--4---4/5--5--x-----3-3----x---3----x--3---3--|

A|-------x------2------x------(2/3)--|
E|-------xh4----3------x------(2/3)--|
C|-----3-x----3-2----2-xh5--5-2/3----|
G|--3----x--3---4--4---x--4---4/5----|

Part C:

A|-----3------------3--------------3--------|
E|-----3----3-------3-----3--------3-----3--|
C|-----3----3-------3-----3--------3-----3--|
G|--5--5--5---5--5--5--5-----5--5--5--5-----|

A|-3--3--(3)--3--3--3--(3)--2--2--(2)--2--2--2--(2)--5--(2)--5---------(2/3)--|
E|-4-(4)-(4)-(4)-4-(4)-(4)--3-(3)-(3)-(3)-3-(3)-(3)-(3)-(3)-(3)--3-----(2/3)--|
C|-3-(3)-(3)-(3)-3-(3)-(3)--2-(2)-(2)-(2)-2-(2)-(2)-(2)-(2)-(2)--2--5--2/3----|
G|-5-(5)--5--(5)-5-(5)--5---4-(4)--4--(4)-4-(4)--4--(4)--4--(4)--4-----4/5----|



Outro:

A|----x--3--1-------x-------------x------2-----x------(2/3)--|
E|----x-----1-------xh4-----3-----xh4----3-----x------(2/3)--|  part b agin but without the frist chord
C|----x-----2----2--x-----2-3---3-x----3-2---2-xh5--5--2/3---|
G|-5--x-----3-3-----x---3---3-3---x--3---4-4---x--4----4/5---|

A|----x--3--1------x------------x------2----x------(2/3)---x--3--1------x--------x---------|
E|----x-----1------xh4----3-----xh4----3----x------(2/3)---x-----1------xh4------xh4----3--|
C|----x-----2---2--x---2--3---3-x----3-2--2-xh5--5-2/3-----x-----2---2--x-----2--x----2-3--|
G|-5--x-----3-3----x--3---3-3---x--3---4-4--x--4---4/5--5--x-----3-3----x---3----x--3---3--|


/ Slide up
h hammer on
()ghost note

Almost there ...

Sign in to get your own page with links to favourite songs and more. You are just one click away...

Login with Facebook Login with Google