Log in

One click and you are in

Login with Facebook Login with Google

Why sign up and log in

Guitar Tabs Explorer
Misc Cartoons guitar chords for Monster - for the love of life ukulele

Monster - For The Love Of Life Ukulele chords by Misc Cartoons

Misc Cartoons guitar chords for Monster - for the love of life ukulele

Guitar chords

Tuning: G C E A (G C E A)

and-slo-wly  you-come-to-rea-lize  it's-all-as-it-should-be

A|------------------------------------------6----7---6--3------------|
E|----3---5---3------3----8---3--0---3----------------------3----3---|
C|-------------------------------------------------------------------|
G|-------------------------------------------------------------------|

   you-can-on-ly-do-so-much  if-you're-game-en-ough

A|----4---6--7---6-2-------------------------------------------------|
E|--------------------2---9-----9----11----12---11--7----------------|
C|-------------------------------------------------------------------|
G|-------------------------------------------------------------------|

   you-could-place-your-trust-in-me   for-the-love-of-life

A|-----------------------------------------3---5----7--10---7--------|
E|----9---11----12----11----7----2--2--------------------------------|
C|-------------------------------------------------------------------|
G|-------------------------------------------------------------------|

   there's-a-trade-of

A|-----5-----7---7----3----------------------------------------------|
E|-------------------------------------------------------------------|
C|-------------------------------------------------------------------|
G|-------------------------------------------------------------------|

   we-could-lose-it-all-but-we'll-go-down-fight-ing

A|----3----5-----7--10--7---5----7---8----10---7----5----------------|
E|-------------------------------------------------------------------|
C|-------------------------------------------------------------------|
G|-------------------------------------------------------------------|

   and-what-of-the-child-ren?

A|--------8----7--3----8----7----------------------------------------|
E|----3--------------------------------------------------------------|
C|-------------------------------------------------------------------|
G|-------------------------------------------------------------------|

   sure-ly-they-can't-be-blamed-for-our-mis-takes

A|------------------8----7----3---------5--3-------------------------|
E|-----3---5---3-------------------3------------3--------------------|
C|-------------------------------------------------------------------|
G|-------------------------------------------------------------------|

   and-slo-wly  i've-come-to-rea-lize  it's-all-as-it-should-be

A|------------------------------------------6----7---6--3------------|
E|----3---5---3------3-----8---3--0---3----------------------3----3--|
C|-------------------------------------------------------------------|
G|-------------------------------------------------------------------|

   that-hi-ding-space-that-lone-ly-place

A|-----5---5---3----8-----1----1---0---3-----------------------------|
E|-------------------------------------------------------------------|
C|-------------------------------------------------------------------|
G|-------------------------------------------------------------------|

  a-gain-the-right-thing-be-so-wrong

A|-----8----7----3----------8--7---3---------------------------------|
E|- 3------------------3---------------------------------------------|
C|-------------------------------------------------------------------|
G|-------------------------------------------------------------------|

  i-found-mis-takes-were-they-don't-be-long

A|------8----7----3--------------------------------------------------|
E|--3-------------------3----5----6----3---3-------------------------|
C|-------------------------------------------------------------------|
G|-------------------------------------------------------------------|

   for-the-love-of-life

A|-----3---5----7--10---7--------------------------------------------|
E|-------------------------------------------------------------------|
C|-------------------------------------------------------------------|
G|-------------------------------------------------------------------|

   we'll-de-feat-this

A|-----5---7---7----3------------------------------------------------|
E|-------------------------------------------------------------------|
C|-------------------------------------------------------------------|
G|-------------------------------------------------------------------|

   they-may-tear-us-down-but-we'll-go-down-fight-ing

A|----3----5---7---10---7---5----7----8--10----7----5----------------|
E|-------------------------------------------------------------------|
C|-------------------------------------------------------------------|
G|-------------------------------------------------------------------|

  won't-we?

A|----3---3----------------------------------------------------------|
E|-------------------------------------------------------------------|
C|-------------------------------------------------------------------|
G|-------------------------------------------------------------------|

Almost there ...

Sign in to get your own page with links to favourite songs and more. You are just one click away...

Login with Facebook Login with Google