Log in

One click and you are in

Login with Facebook Login with Google

Why sign up and log in

Guitar Tabs Explorer
Misc Cartoons bass tabs for Jojos bizarre adventure golden wind - giornos theme - il vento doro

Jojos Bizarre Adventure Golden Wind - Giornos Theme - Il Vento Doro bass tab by Misc Cartoons

Misc Cartoons bass tabs for Jojos bizarre adventure golden wind - giornos theme - il vento doro

Bass tabs

Tuning: Standard (E A D G)


Fig. 1 - 1:

G|--------------------------------|--------------------------------|
D|--------------------------------|--------------------------------|
A|--------------------------------|--------------------------------|
E|-2---2---2-0---2---5---2--------|-2---2---2-0---2---8---7---5-0--|
B|---------------------------2-5--|--------------------------------|

G|--------------------------------|--------------------------------|
D|--------------------------------|--------------------------------|
A|--------------------------------|--------------------------------|
E|-2---2---2-0---2---5---2--------|-2---2---2-0-2-5---8---7---5-0--|
B|---------------------------2-5--|--------------------------------|

G|--------------------------------|--------------------------------|
D|--------------------------------|--------------------------------|
A|--------------------------------|--------------------------------|
E|-2---2---2-0---2---5---2--------|-2---2---2-0---2---8---7---5-0--|
B|---------------------------2-5--|--------------------------------|

G|--------------------------------|--------------------------------|
D|--------------------------------|--------------------------------|
A|--------------------------------|--------------------------------|
E|-2---2---2-0---2---5---2--------|-2---2---2-0---2----------------|
B|---------------------------2-5--|--------------------------------|

G|--------------------------------|--------------------------------|
D|--------------------------------|--------------------------------|
A|--------------------------------|--------------------------------|
E|-2---2---2-0---2---5---2--------|-2---2---2-0---2---8---7---5-0--|
B|---------------------------2-5--|--------------------------------|

G|--------------------------------|--------------------------------|
D|--------------------------------|--------------------------------|
A|--------------------------------|--------------------------------|
E|-2---2---2-0---2---5---2--------|-2---2---2-0-2-5---8---7---5-0--|
B|---------------------------2-5--|--------------------------------|

G|--------------------------------|--------------------------------|
D|--------------------------------|--------------------------------|
A|--------------------------------|--------------------------------|
E|-2---2---2-0---2---5---2--------|-2---2---2-0---2---8---7---5-0--|
B|---------------------------2-5--|--------------------------------|

G|--------------------------------|--------------------------------|
D|--------------------------------|--------------------------------|
A|--------------------------------|--------------------------------|
E|-2---2---2-0---2---5---2--------|-2---2---2-0---2----------------|
B|---------------------------2-5--|--------------------------------|

Fig. 2 - 1:

G|-------------------2-----2-2-3--|-4-4-3---2----------------------|
D|---------0-2---4-------4--------|-----------4---2-------6---7---8|
A|-2---4--------------------------|--------------------------------|
E|--------------------------------|-------------------3/4---5---6--|
B|--------------------------------|--------------------------------|

G|-------------------2-----2-2-3--|--------------------------------|
D|---------0-2---4-------4--------|-----------------------6---7---8|
A|-2---4--------------------------|--------------------------------|
E|--------------------------------|-7\----4-5---6-7\--3/4---5---6--|
B|--------------------------------|--------------------------------|

G|-------------------2-----2-2-3--|-4-4-3---2----------------------|
D|---------0-2---4-------4--------|-----------4---2-------6---7---8|
A|-2---4--------------------------|--------------------------------|
E|--------------------------------|-------------------3/4---5---6--|
B|--------------------------------|--------------------------------|

G|-------------------2-----2-2-3--|--------------------------------|
D|---------0-2---4-------4--------|--------------------------------|
A|-2---4--------------------------|--------------------------------|
E|--------------------------------|-7\------4---4---5-5-5---6-6-6--|
B|--------------------------------|--------------------------------|

G|-------------------2-----2-2-3--|-4-4-3---2----------------------|
D|---------0-2---4-------4--------|-----------4---2-------6---7---8|
A|-2---4--------------------------|--------------------------------|
E|--------------------------------|-------------------3/4---5---6--|
B|--------------------------------|--------------------------------|

G|-------------------2-----2-2-3--|--------------------------------|
D|---------0-2---4-------4--------|-----------------------6---7---8|
A|-2---4--------------------------|--------------------------------|
E|--------------------------------|-7\----4-5---6-7\--3/4---5---6--|
B|--------------------------------|--------------------------------|

G|-------------------2-----2-2-3--|-4-4-3---2----------------------|
D|---------0-2---4-------4--------|-----------4---2-------6---7---8|
A|-2---4--------------------------|--------------------------------|
E|--------------------------------|-------------------3/4---5---6--|
B|--------------------------------|--------------------------------|

G|-------------------2-----2-2-3--|--------------------------------|
D|---------0-2---4-------4--------|--------------------------------|
A|-2---4--------------------------|--------------------------------|
E|--------------------------------|-7\------4---4---5-5-5---6-6-6--|
B|--------------------------------|--------------------------------|

Fig. 3 - 1:

G|--------------------------------|--------------------------------|
D|--------------------------------|--------------------------------|
A|--------------------------------|--------------------------------|
E|-7-----5-----7-----x-4---5---6--|-7-----5-----7-----x-2---5---6--|
B|--------------------------------|--------------------------------|

G|--------------------------------|--------------------------------|
D|--------------------------------|--------------------------------|
A|--------------------------------|--------------------------------|
E|-7-----5-----7-----x-4---5-5-6--|-7-----5-----7-----x------------|
B|--------------------------------|---------------------7---4---2--|

G|--------------------------------|--------------------------------|
D|--------------------------------|---------------------2/4--------|
A|--------------------------------|--------------------------------|
E|-7-----5-----7-----x-4---5---6--|-7-----5-----7-----x-----5---6--|
B|--------------------------------|--------------------------------|

G|--------------------------------|--------------------------------|
D|--------------------------------|--------------------------------|
A|--------------------------------|-----------------------------5--|
E|-7---x-5-7---7---x-7-3---4---5--|-5-7---5-7---5-7---5-7---5-7----|
B|--------------------------------|--------------------------------|

Fig. 4 - 1:

G|--------------------------------|--------------------------------|
D|-------------------------6------|--------------------------------|
A|-2-----x-0----------------------|-4-----x-4---4------------------|
E|-------------4-------4-------4--|-----------------2---------2----|
B|--------------------------------|--------------------------------|

G|--------------------------------|--------------------------------|
D|-------------------------6------|--------------------------------|
A|-2-----x-0----------------------|-4-----x-4---4------------------|
E|-------------4-------4-------4--|-----------------2---------2----|
B|--------------------------------|--------------------------------|

G|--------------------------------|--------------------------------|
D|-------------------------6------|--------------------------------|
A|-2-----x-0----------------------|-4-----x-4---4------------------|
E|-------------4-------4-------4--|-----------------2---------2----|
B|--------------------------------|--------------------------------|

G|--------------------------------|--------------------------------|
D|-------------------------6------|--------------------------------|
A|-2-----x-0----------------------|-4-----x-4---4------------------|
E|-------------4-------4-------4--|-----------------2---------2----|
B|--------------------------------|--------------------------------|

Fig. 1 - 2:

G|--------------------------------|--------------------------------|
D|--------------------------------|--------------------------------|
A|--------------------------------|--------------------------------|
E|-2---2---2-0---2---5---2--------|-2---2---2-0---2---8---7---5-0--|
B|---------------------------2-5--|--------------------------------|

G|--------------------------------|--------------------------------|
D|--------------------------------|--------------------------------|
A|--------------------------------|--------------------------------|
E|-2---2---2-0---2---5---2--------|-2---2---2-0-2-5---8---7---5-0--|
B|---------------------------2-5--|--------------------------------|

G|--------------------------------|--------------------------------|
D|--------------------------------|--------------------------------|
A|--------------------------------|--------------------------------|
E|-2---2---2-0---2---5---2--------|-2---2---2-0---2---8---7---5-0--|
B|---------------------------2-5--|--------------------------------|

G|--------------------------------|--------------------------------|
D|--------------------------------|--------------------------------|
A|--------------------------------|--------------------------------|
E|-2---2---2-0---2---5---2--------|-2---2---2-0---2---8---7---5-0--|
B|---------------------------2-5--|--------------------------------|

Fig. 2 - 2:

G|-------------------2-----2-2-3--|-4-4-3---2----------------------|
D|---------0-2---4-------4--------|-----------4---2-------6---7---8|
A|-2---4--------------------------|--------------------------------|
E|--------------------------------|-------------------3/4---5---6--|
B|--------------------------------|--------------------------------|

G|-------------------2-----2-2-3--|--------------------------------|
D|---------0-2---4-------4--------|-----------------------6---7---8|
A|-2---4--------------------------|--------------------------------|
E|--------------------------------|-7\----4-5---6-7\--3/4---5---6--|
B|--------------------------------|--------------------------------|

G|-------------------2-----2-2-3--|-4-4-3---2----------------------|
D|---------0-2---4-------4--------|-----------4---2-------6---7---8|
A|-2---4--------------------------|--------------------------------|
E|--------------------------------|-------------------3/4---5---6--|
B|--------------------------------|--------------------------------|

G|-------------------2-----2-2-3--|--------------------------------|
D|---------0-2---4-------4--------|--------------------------------|
A|-2---4--------------------------|--------------------------------|
E|--------------------------------|-7\------4---4---5-5-5---6-6-6--|
B|--------------------------------|--------------------------------|

G|-------------------2-----2-2-3--|-4-4-3---2----------------------|
D|---------0-2---4-------4--------|-----------4---2-------6---7---8|
A|-2---4--------------------------|--------------------------------|
E|--------------------------------|-------------------3/4---5---6--|
B|--------------------------------|--------------------------------|

G|-------------------2-----2-2-3--|--------------------------------|
D|---------0-2---4-------4--------|-----------------------6---7---8|
A|-2---4--------------------------|--------------------------------|
E|--------------------------------|-7\----4-5---6-7\--3/4---5---6--|
B|--------------------------------|--------------------------------|

G|-------------------2-----2-2-3--|-4-4-3---2----------------------|
D|---------0-2---4-------4--------|-----------4---2-------6---7---8|
A|-2---4--------------------------|--------------------------------|
E|--------------------------------|-------------------3/4---5---6--|
B|--------------------------------|--------------------------------|

G|-------------------2-----2-2-3--|--------------------------------|
D|---------0-2---4-------4--------|--------------------------------|
A|-2---4--------------------------|--------------------------------|
E|--------------------------------|-7\------4---4---5-5-5---6-6-6--|
B|--------------------------------|--------------------------------|

G|-------------------2-----2-2-3--|-4-4-3---2----------------------|
D|---------0-2---4-------4--------|-----------4---2-------6---7---8|
A|-2---4--------------------------|--------------------------------|
E|--------------------------------|-------------------3/4---5---6--|
B|--------------------------------|--------------------------------|

G|-------------------2-----2-2-3--|--------------------------------|
D|---------0-2---4-------4--------|-----------------------6---7---8|
A|-2---4--------------------------|--------------------------------|
E|--------------------------------|-7\----4-5---6-7\--3/4---5---6--|
B|--------------------------------|--------------------------------|

G|-------------------2-----2-2-3--|-4-4-3---2----------------------|
D|---------0-2---4-------4--------|-----------4---2-------6---7---8|
A|-2---4--------------------------|--------------------------------|
E|--------------------------------|-------------------3/4---5---6--|
B|--------------------------------|--------------------------------|

G|-------------------2-----2-2-3--|--------------------------------|
D|---------0-2---4-------4--------|--------------------------------|
A|-2---4--------------------------|--------------------------------|
E|--------------------------------|-7\------4---4---5-5-5---6-6-6--|
B|--------------------------------|--------------------------------|

G|-------------------2-----2-2-3--|-4-4-3---2----------------------|
D|---------0-2---4-------4--------|-----------4---2-------6---7---8|
A|-2---4--------------------------|--------------------------------|
E|--------------------------------|-------------------3/4---5---6--|
B|--------------------------------|--------------------------------|

G|-------------------2-----2-2-3--|--------------------------------|
D|---------0-2---4-------4--------|-----------------------6---7---8|
A|-2---4--------------------------|--------------------------------|
E|--------------------------------|-7\----4-5---6-7\--3/4---5---6--|
B|--------------------------------|--------------------------------|

G|-------------------2-----2-2-3--|-4-4-3---2----------------------|
D|---------0-2---4-------4--------|-----------4---2-------6---7---8|
A|-2---4--------------------------|--------------------------------|
E|--------------------------------|-------------------3/4---5---6--|
B|--------------------------------|--------------------------------|

G|-------------------2-----2-2-3--|--------------------------------|
D|---------0-2---4-------4--------|-----------------------------7-9|
A|-2---4--------------------------|-------------------7---8-9------|
E|--------------------------------|-7\------4---4-5----------------|
B|--------------------------------|--------------------------------|

Fig. 5 - 1:

G|--------------------------------|--------------------------------|
D|-----------------------------2-4|-------4-----------------0-2----|
A|-------------------------2-4----|--------------------------------|
E|-4-------x---2-------x----------|-2---2---2---0-------0-------0--|
B|--------------------------------|--------------------------------|

G|--------------------------------|--------------------------------|
D|--------------------------------|-------------1---3---1----------|
A|--------------------------------|---------1-3-------------3------|
E|-4-4-4---4-0-2-----2-2---2-2-2--|-1---3-4-------------------4----|
B|--------------------------------|--------------------------------|

G|--------------------------------|--------------------------------|
D|--------------------------------|--------------------------------|
A|-----------------------------3/-|10--10--10--10--10--10--10--10--|
E|-3---3---3---3---3---3---3------|--------------------------10----|
B|--------------------------------|--------------------------------|

G|--------------------------------|--------------------------------|
D|--------------------------------|--------------------------------|
A|-----------------------------2/-|-9---9---9---9-------2---4---2--|
E|-2---2---2---2---2---2---2------|-----------------2--------------|
B|--------------------------------|--------------------------------|

Fig. 6 - 1:

G|--------------------------------|--------------------------------|
D|--------------------------------|--------------------------------|
A|--------------------------------|--------------------------------|
E|-7---x-5---x-4---x-3---x-2---0--|-7---x-5---x-4---x-3---x-2---0--|
B|--------------------------------|--------------------------------|

G|--------------------------------|--------------------------------|
D|--------------------------------|--------------------------------|
A|--------------------------------|--------------------------------|
E|-7---x-5---x-4---x-3---x-2---0--|-2------------------------------|
B|--------------------------------|--------------------------------|

G|--------------------------------|
D|--------------------------------|
A|--------------------------------|
E|(2)-----------------------------|
B|--------------------------------|

Fig. 2 - 3:

G|-------------------2-----2-2-3--|-4-4-3---2----------------------|
D|---------0-2---4-------4--------|-----------4---2-------6---7---8|
A|-2---4--------------------------|--------------------------------|
E|--------------------------------|-------------------3/4---5---6--|
B|--------------------------------|--------------------------------|

G|-------------------2-----2-2-3--|--------------------------------|
D|---------0-2---4-------4--------|-----------------------6---7---8|
A|-2---4--------------------------|--------------------------------|
E|--------------------------------|-7\----4-5---6-7\--3/4---5---6--|
B|--------------------------------|--------------------------------|

G|-------------------2-----2-2-3--|-4-4-3---2----------------------|
D|---------0-2---4-------4--------|-----------4---2-------6---7---8|
A|-2---4--------------------------|--------------------------------|
E|--------------------------------|-------------------3/4---5---6--|
B|--------------------------------|--------------------------------|

G|-------------------2-----2-2-3--|--------------------------------|
D|---------0-2---4-------4--------|--------------------------------|
A|-2---4--------------------------|--------------------------------|
E|--------------------------------|-7\------4---4---5-5-5---6-6-6--|
B|--------------------------------|--------------------------------|

G|-------------------2-----2-2-3--|-4-4-3---2----------------------|
D|---------0-2---4-------4--------|-----------4---2-------6---7---8|
A|-2---4--------------------------|--------------------------------|
E|--------------------------------|-------------------3/4---5---6--|
B|--------------------------------|--------------------------------|

G|-------------------2-----2-2-3--|--------------------------------|
D|---------0-2---4-------4--------|-----------------------6---7---8|
A|-2---4--------------------------|--------------------------------|
E|--------------------------------|-7\----4-5---6-7\--3/4---5---6--|
B|--------------------------------|--------------------------------|

G|-------------------2-----2-2-3--|-4-4-3---2----------------------|
D|---------0-2---4-------4--------|-----------4---2-------6---7---8|
A|-2---4--------------------------|--------------------------------|
E|--------------------------------|-------------------3/4---5---6--|
B|--------------------------------|--------------------------------|

G|-------------------2-----2-2-3--|--------------------------------|
D|---------0-2---4-------4--------|--------------------------------|
A|-2---4--------------------------|--------------------------------|
E|--------------------------------|-7\------4---4---5-5-5---6-6-6--|
B|--------------------------------|--------------------------------|

Fig. 3 - 2:

G|--------------------------------|--------------------------------|
D|--------------------------------|--------------------------------|
A|--------------------------------|--------------------------------|
E|-7-----5-----7-----x-4---5---6--|-7-----5-----7-----x-2---5---6--|
B|--------------------------------|--------------------------------|

G|--------------------------------|--------------------------------|
D|--------------------------------|--------------------------------|
A|--------------------------------|--------------------------------|
E|-7-----5-----7-----x-4---5-5-6--|-7-----5-----7-----x------------|
B|--------------------------------|---------------------7---4---2--|

G|--------------------------------|--------------------------------|
D|--------------------------------|---------------------2/4--------|
A|--------------------------------|--------------------------------|
E|-7-----5-----7-----x-4---5---6--|-7-----5-----7-----x-----5---6--|
B|--------------------------------|--------------------------------|

G|--------------------------------|--------------------------------|
D|--------------------------------|--------------------------------|
A|--------------------------------|-----------------------------5--|
E|-7---x-5-7---7---x-7-3---4---5--|-5-7---5-7---5-7---5-7---5-7----|
B|--------------------------------|--------------------------------|

Breakdown:

No bass

Fig. 4 - 2:

G|--------------------------------|--------------------------------|
D|-------------------------6------|--------------------------------|
A|-2-----x-0----------------------|-4-----x-4---4------------------|
E|-------------4-------4-------4--|-----------------2---------2----|
B|--------------------------------|--------------------------------|

G|--------------------------------|--------------------------------|
D|-------------------------6------|--------------------------------|
A|-2-----x-0----------------------|-4-----x-4---4------------------|
E|-------------4-------4-------4--|-----------------2---------2----|
B|--------------------------------|--------------------------------|

G|--------------------------------|--------------------------------|
D|-------------------------6------|--------------------------------|
A|-2-----x-0----------------------|-4-----x-4---4------------------|
E|-------------4-------4-------4--|-----------------2---------2----|
B|--------------------------------|--------------------------------|

G|--------------------------------|--------------------------------|
D|-------------------------6------|--------------------------------|
A|-2-----x-0----------------------|-4-----x-4---4------------------|
E|-------------4-------4-------4--|-----------------2---------2----|
B|--------------------------------|--------------------------------|

Fig. 1 - 3:

G|--------------------------------|--------------------------------|
D|--------------------------------|--------------------------------|
A|--------------------------------|--------------------------------|
E|-2---2---2-0---2---5---2--------|-2---2---2-0---2---8---7---5-0--|
B|---------------------------2-5--|--------------------------------|

G|--------------------------------|--------------------------------|
D|--------------------------------|--------------------------------|
A|--------------------------------|--------------------------------|
E|-2---2---2-0---2---5---2--------|-2---2---2-0-2-5---8---7---5-0--|
B|---------------------------2-5--|--------------------------------|

G|--------------------------------|--------------------------------|
D|--------------------------------|--------------------------------|
A|--------------------------------|--------------------------------|
E|-2---2---2-0---2---5---2--------|-2---2---2-0---2---8---7---5-0--|
B|---------------------------2-5--|--------------------------------|

G|--------------------------------|--------------------------------|
D|--------------------------------|--------------------------------|
A|--------------------------------|--------------------------------|
E|-2---2---2-0---2---5---2--------|-2---2---2-0---2----------------|
B|---------------------------2-5--|--------------------------------|

G|--------------------------------|--------------------------------|
D|--------------------------------|--------------------------------|
A|--------------------------------|--------------------------------|
E|-2---2---2-0---2---5---2--------|-2---2---2-0---2---8---7---5-0--|
B|---------------------------2-5--|--------------------------------|

G|--------------------------------|--------------------------------|
D|--------------------------------|--------------------------------|
A|--------------------------------|--------------------------------|
E|-2---2---2-0---2---5---2--------|-2---2---2-0-2-5---8---7---5-0--|
B|---------------------------2-5--|--------------------------------|

G|--------------------------------|--------------------------------|
D|--------------------------------|--------------------------------|
A|--------------------------------|--------------------------------|
E|-2---2---2-0---2---5---2--------|-2---2---2-0---2---8---7---5-0--|
B|---------------------------2-5--|--------------------------------|

G|--------------------------------|--------------------------------|
D|--------------------------------|--------------------------------|
A|--------------------------------|--------------------------------|
E|-2---2---2-0---2---5---2--------|-2---2---2-0-2-5---8---7---5-0--|
B|---------------------------2-5--|--------------------------------|

G|--------------------------------|--------------------------------|
D|--------------------------------|--------------------------------|
A|--------------------------------|--------------------------------|
E|-----------------2--------------|(2)-----------------------------|
B|--------------------------------|--------------------------------|

G|--------------------------------|--------------------------------|
D|--------------------------------|--------------------------------|
A|--------------------------------|--------------------------------|
E|(2)-----------------------------|(2)-----------------------------|
B|--------------------------------|--------------------------------|

G|----------------|
D|----------------|
A|----------------|
E|(2)-------------|
B|----------------|


************************************

| x   Dead note
| /   Slide up
| \   Slide down
|(n)  Hold note

************************************

Almost there ...

Sign in to get your own page with links to favourite songs and more. You are just one click away...

Login with Facebook Login with Google