Search tabs and chords

Browse bands and artists

A B C D E F G H I J K L M N O P Q R S T U V W X Y Z #

Log in

[ Register here | Forgot password ]

Guitar Tabs Explorer
Print

Guitar tabs :

Gravity Falls Theme tab by Misc Cartoons (Ver. 2) (Intro)

e|------------------4--2--4----------------------------2--4--2--0------------|
B|--2-----4---5---------------0------2-----4---5---4-------------------------|
G|---------------------------------------------------------------------------|
D|---------------------------------------------------------------------------|
A|---------------------------------------------------------------------------|
E|---------------------------------------------------------------------------|


e|-0--0--0--4--4--2--0----4--4--4--2--4--2--0----0--0--0--4--4--2--0---------|
B|---------------------------------------------------------------------------|
G|---------------------------------------------------------------------------|
D|---------------------------------------------------------------------------|
A|---------------------------------------------------------------------------|
E|---------------------------------------------------------------------------|

e|-4-4-4---7-7-7----0-0-0-4-4-2-0---5-5-5-2--7---4---8-----------------------|
B|---------------------------------------------------------------------------|
G|---------------------------------------------------------------------------|
D|---------------------------------------------------------------------------|
A|---------------------------------------------------------------------------|
E|---------------------------------------------------------------------------|


e|-0-0--4-4---9--------------------------------------------------------------|
B|--2-2--5-5-----------------------------------------------------------------|
G|---------------------------------------------------------------------------|
D|---------------------------------------------------------------------------|
A|---------------------------------------------------------------------------|
E|---------------------------------------------------------------------------|

This is my first time doing guitar tabs, so enjoy! If you have any suggestions, feel free to comment! :)

Other versions of Gravity Falls Theme

Gravity falls themeChords
Gravity falls themeTabs

Comments

Misc Cartoons guitar tabs for Gravity falls theme (Ver. 2)