Log in

One click and you are in

Login with Facebook Login with Google

Why sign up and log in

Guitar Tabs Explorer
Misc Cartoons bass tabs for Family guy theme

Bass tabs

Tuning: Standard (E A D G)

The timing of phrases can be a bit tricky. Anything in parantheses is alternate fingering or optional.
Here is the Bass: part

G|-------------------------------------------------------------------------------|
D|--------------0--3--0--------------------------------------------------0-------|
A|-3-3----0--3-----------3---0-----5--3-------------0--1--1--2--2--3--4-----0----|
E|----0h1-----------------------3--------5--3-3-1-3----------------------------3-|

rest

G|---------------------------------------------------------|
D|---------------------------------------------------------|
A|/3--4--1-1-1---2-2-2---3-3--4--5--0-----1--3-------------|
E|-------------1-------1--------------3-3-------3--1-1-3-1-|

half-rest

G|------------------------------------------------------|
D|------------------------------------------(0)--2h3----|
A|---------0--4--5---5/3--3--3---5h7--3-1h3--5-3--------|
E|-1p0--0---------------------------------------------1-|

That was the bass line. Here is the Melody:

G|---3--2h3----2--1h2-------------------------------------------------------1-0-(h1p0)-------|
D|-1---------1----------3--6p5-6p5-6/8--6p5-5p3h5----0h1h2-3-3-1--4--1--5-5------------(h3/5)|
A|-------------------------------------------------3-----------------------------------------|
E|-------------------------------------------------------------------------------------------|

G|-----0--5--0--------3-/4--5-3h5--7h8-7p5-3---1-0h1-0h1-3--1p0---------------------------|
D|--3-----------3--1--------------------------------------------3h5-3h5-6--5p3-1h3-1h3-5--|
A|----------------------------------------------------------------------------------------|
E|----------------------------------------------------------------------------------------|

G|---0--5---3---4---5---7--3-1h3-5-3h7-8-----|
D|-1--------------------------------------1--|
A|-------------------------------------------|
E|-------------------------------------------|


************************************

| h  Hammer-on
| /  Slide up
| (n) Ghost note
| p  Pull-off


************************************

Other versions of Family Guy Theme

Family guy theme songBass tabs

Almost there ...

Sign in to get your own page with links to favourite songs and more. You are just one click away...

Login with Facebook Login with Google