Log in

One click and you are in

Login with Facebook Login with Google

Why sign up and log in

Guitar Tabs Explorer
Misc Cartoons bass tabs for Encanto - we dont talk about bruno

Encanto - We Don't Talk About Bruno bass tab by Misc Cartoons

Misc Cartoons bass tabs for Encanto - we dont talk about bruno

Bass tabs

Intro:

G|----------------------------|
D|----------------------------|
A|----------------------------|
E|--4-4--3-3--4-4--3-3--------|

Verse 1: (Pepa & Felix)

G|------------4---------------|
D|----5-3-6-5---6-3-5---------|
A|--3-------------------------| x3
E|----------------------------|

G|----------------------------|
D|-----6----------------------|
A|--3-------------------------|
E|-------4-3------------------|

G|------------4------------------4--------------------4---------|
D|----5-3-6-5---6-3-5----5-3-6-5---6-3-3-5----5-3-6-5---6-3-5---|
A|--3------------------3--------------------3-------------------|
E|--------------------------------------------------------------|


Chorus:

G|----------------------------|
D|-----6----------------------|
A|--3-------------------------| x2
E|-------4-3------------------|


Verse 2: (Dolores)

G|------------4--------------------|
D|----5-3-6-5---6-3-5----5-3-6-5---|
A|--3------------------3-----------|
E|---------------------------------|

G|--------------4------------------|
D|----5-3-6-3-5---6-3-5----6-------|
A|--3--------------------3---------|
E|---------------------------4-3---|


Verse 3: (Camilo)

G|------------4------------------4----------------------4---------|
D|----5-3-6-5---6-3-5----5-3-6-5---6-3-3-5------5-3-6-5---6-3-5---|
A|--3------------------3--------------------3-6-------------------|
E|----------------------------------------------------------------|


Chorus:

G|----------------------------|
D|-----6----------------------|
A|--3-------------------------| x2
E|-------4-3------------------|


Bridge: (Villagers)

G|----------------------------------------------------|
D|------3-3-5-------3-3-5-------3-3-5---6-6-6-5-5-5---|
A|--3-3---------3-3---------3-3-----------------------|
E|----------------------------------------------------|


Bridge: (Isabela & Dolores)
              Nothing here until Mirabel's "Umm
Bruno"
G|----------------------------|
D|----------------------------|
A|----------------------------|
E|----------------------------|


G|----------------------------|
D|----------------------------|
A|-----------------------2----|
E|--4-3--4-3--4-3--4-3--------|


Chorus: (Cross Over)

G|------------4---------------|
D|----5-3-6-5---6-3-5---------|
A|--3-------------------------| x3
E|----------------------------|

G|----------------------------|
D|-----6----------------------|
A|--3-------------------------|
E|-------4-3------------------|

G|------------4---------------|
D|----5-3-6-5---6-3-5---------|
A|--3-------------------------| x3
E|----------------------------|


Outro: (Mirabel)

G|----------------------------|
D|----6----------6------------|
A|--3----------3----------3---|
E|-------4-3-------4-3--------|

Almost there ...

Sign in to get your own page with links to favourite songs and more. You are just one click away...

Login with Facebook Login with Google