Log in

One click and you are in

Login with Facebook Login with Google

Why sign up and log in

Guitar Tabs Explorer
Misc Cartoons guitar tabs for Dragon ball z - tapion theme

Dragon Ball Z - Tapion Theme tab by Misc Cartoons

Misc Cartoons guitar tabs for Dragon ball z - tapion theme

Guitar tabs

Tuning: Standard (E A D G B E)

Difficulty: Novice


Verse 1:
E2|---------------------------------------------------------------------|
A2|---------------------------------------------------------------------|
D3|-10-10----10-9-10--------------8--------------6---------------8------|
G3|-------10---------10---------7---7----------6---6-----6-----8---8----|
B3|-------------------------9---------6--6-8-9-------6-9---9-8-------8--|
E4|---------------------8-6---6-----------------------------------------|


Verse 2:
E2|------------------------------------------------------------------|
A2|------------------------------------------------------------------|
D3|-10-10----10-9-10--------------8--------------6-------------6-----|
G3|-------10---------10---------7---7----------6---------8---5---5---|
B3|-------------------------9---------6--6-8-9-----9-8-6---6-------6-|
E4|---------------------8-6---6--------------------------------------|

i wrote it with the exact tempo, you'll notice by hearing the original once if you're
not sure if you're playing it right

Almost there ...

Sign in to get your own page with links to favourite songs and more. You are just one click away...

Login with Facebook Login with Google