Log in

One click and you are in

Login with Facebook Login with Google

Why sign up and log in

Guitar Tabs Explorer
Misc Cartoons bass tabs for Dragon ball z - goku super saiyan theme

Dragon Ball Z - Goku Super Saiyan Theme bass tab by Misc Cartoons

Misc Cartoons bass tabs for Dragon ball z - goku super saiyan theme

Bass tabs

Tuning: Standard (E A D G)

Begin at 1:04:

G|-------------------------------------------------------------------------------------------------------|
D|---------1----------------3--1---------------1---------------3--1------------1----------------3--1-----|
A|-3---3----------3---3----------------3---3----------3---3------------3---3----------3---3--------------|
E|--------------------------------1--------------------------------------------------------------------1-|

G|-----------------------------------------------------------------------------------------------------|
D|---------1----------------3--1-----10---\----------------3--1---------------1----------------3--1--0-|
A|-3---3----------3---3----------3----------3-----3---3--------------3---3-----------3---3-------------|
E|---------------------------------------------------------------1-------------------------------------|
1:25:

G|-----------------------------------------------------------------------------------------------------|
D|------------1---1-----------------1-----6--5--------------1---1--------------------------------------|
A|-3---3--3-----------3---3--3--3------3---------3---3--3-----------3--3--3--3--3---0--3---------------|
E|----------------------------------------------------------------------------------------4--3---------|

G|-----------------------------------------------------------------------------------------------|
D|------------1---1-----------------1-----6--5--------------1--1--1-------------6--5--1----------|
A|-3---3--3-----------3---3--3--3------3---------3---3--3-------------3--3--3------------3-------|
E|------------------------------------------------------------------------------------------4--3-|


1:40:

G|-------------------------------------------------------------------------|
D|--------1------------------6--5-------------1---1------------------------|
A|-3---3-------3--3---3---3------------3---3----------3---3--3--1--3-----6-|
E|--------------------------------------------------------------------4----|

G|-------------------------|
D|-------------------------|
A|--------6-----------2--1-|
E|-4---4-------4----4------|


1:59:

G|------------------------------------------------------------|
D|--------------------------1----1-----------------1-----6--5-|
A|----1--2--3---3---3--3-------------3---3--3--3------3-------|
E|-0----------------------------------------------------------|

G|---------------------------------------------------------------------|
D|-------------1--1-------------------------------------------1--1-----|
A|-3---3--3-----------3--3--3--3--0--3-----------3---3--3------------3-|
E|--------------------------------------4--3---------------------------|


************************************

| \ Slide down

************************************

Almost there ...

Sign in to get your own page with links to favourite songs and more. You are just one click away...

Login with Facebook Login with Google