Log in

One click and you are in

Login with Facebook Login with Google

Why sign up and log in

Guitar Tabs Explorer
Misc Cartoons bass tabs for Devilman crybaby - devilman no uta

Devilman Crybaby - Devilman No Uta bass tab by Misc Cartoons

Misc Cartoons bass tabs for Devilman crybaby - devilman no uta

Bass tabs

Tuning: Standard (E A D G)


Intro:
G|---------------------------------------------------------------------------|
D|---------------------------------------------------------------------------|
A|--8-8--8-8--6-6--6-6--4-4--4-4--3-3--3-3-----------------------------------| (x6)
E|---------------------------------------------------------------------------|
G|---------------------------------------------------------------------------|
D|----------------------6-6--6-6--8-8--8-8-----------------------------------|
A|--8-8--8-8--6-6--6-6-------------------------------------------------------|
E|---------------------------------------------------------------------------|


Verse 1:

G|---------------------------------------------------------------------------|
D|---------------------------------------------------------------------------|
A|--8-8--8-8--8-8--8-8------------8-8--8-8-----------------------------------|
E|----------------------8-8--8-8---------------------------------------------|

G|---------------------------------------------------------------------------|
D|---------------------------------------------------------------------------|
A|--8-8--8-8--8-8--8-8-------------------------------------------------------|
E|----------------------6-6--6-6--8-8--8-8-----------------------------------|

G|---------------------------------------------------------------------------|
D|---------------------------------------------------------------------------|
A|------------8-8--8-8-------------------------------------------------------|
E|--6-6--6-6------------8-8--8-8--9-9--9-9-----------------------------------|

G|---------------------------------------------------------------------------|
D|----------------------8-8--8-8---------------------------------------------|
A|--9-9--9-9--8-8--8-8-------------------------------------------------------|
E|--------------------------------8-8--8-8-----------------------------------|


Chorus:

G|---------------------------------------------------------------------------|
D|---------------------------------------------------------------------------|
A|--8-8--8-8-------8-8------------8-8--8-8-----------------------------------|
E|------------6-6-------6-6--6-6---------------------------------------------|

G|---------------------------------------------------------------------------|
D|---------------------------------------------------------------------------|
A|--10-10--10-10--8-8--10-10-------------------------------------------------|
E|------------------------------8-8--8-8--8-8--8-8---------------------------|

G|---------------------------------------------------------------------------|
D|----------------------8-8--8-8--8-8--8-8-----------------------------------|
A|--8-8--8-8--8-8--8-8-------------------------------------------------------|
E|---------------------------------------------------------------------------|

G|---------------------------------------------------------------------------|
D|---------------------------------------------------------------------------|
A|----------------------8-8--8-8--8-8--8-8-----------------------------------|
E|--8-8--8-8--8-8--8-8-------------------------------------------------------|


Break:

G|---------------------------------------------------------------------------|
D|---------------------------------------------------------------------------|
A|--8-8--8-8--8-8--8-8--8-8--8-8--8-8--8-8--8-8--8-8--8-8--8-8---------------|
E|---------------------------------------------------------------------------|


Verse 2:

G|---------------------------------------------------------------------------|
D|---------------------------------------------------------------------------|
A|--8-8--8-8--8-8--8-8------------8-8--8-8-----------------------------------|
E|----------------------8-8--8-8---------------------------------------------|

G|---------------------------------------------------------------------------|
D|---------------------------------------------------------------------------|
A|--8-8--8-8--8-8--8-8-------------------------------------------------------|
E|----------------------6-6--6-6--8-8--8-8-----------------------------------|

G|---------------------------------------------------------------------------|
D|---------------------------------------------------------------------------|
A|------------8-8--8-8-------------------------------------------------------|
E|--6-6--6-6------------8-8--8-8--9-9--9-9-----------------------------------|

G|---------------------------------------------------------------------------|
D|----------------------8-8--8-8---------------------------------------------|
A|--9-9--9-9--8-8--8-8-------------------------------------------------------|
E|--------------------------------8-8--8-8-----------------------------------|


Chorus:

G|---------------------------------------------------------------------------|
D|---------------------------------------------------------------------------|
A|--8-8--8-8-------8-8------------8-8--8-8-----------------------------------|
E|------------6-6-------6-6--6-6---------------------------------------------|

G|---------------------------------------------------------------------------|
D|---------------------------------------------------------------------------|
A|--10-10--10-10--8-8--10-10-------------------------------------------------|
E|------------------------------8-8--8-8--8-8--8-8---------------------------|

G|---------------------------------------------------------------------------|
D|----------------------8-8--8-8--8-8--8-8-----------------------------------|
A|--8-8--8-8--8-8--8-8-------------------------------------------------------|
E|---------------------------------------------------------------------------|

G|---------------------------------------------------------------------------|
D|---------------------------------------------------------------------------|
A|----------------------8-8--8-8--8-8--8-8-----------------------------------|
E|--8-8--8-8--8-8--8-8-------------------------------------------------------|


Break:

G|---------------------------------------------------------------------------|
D|---------------------------------------------------------------------------|
A|--8-8--8-8--8-8--8-8--8-8--8-8--8-8--8-8-----------------------------------|
E|---------------------------------------------------------------------------|


Bridge:

G|---------------------------------------------------------------------------|
D|---------------------------------------------------------------------------|
A|--8-8--8-8--6-6--6-6--4-4--4-4--3-3--3-3-----------------------------------| (x7)
E|---------------------------------------------------------------------------|

G|---------------------------------------------------------------------------|
D|---------------------------------------------------------------------------|
A|--8-8--8-8--6-6--6-6-------------------------------------------------------|
E|---------------------------------------------------------------------------|


Intro:

G|---------------------------------------------------------------------------|
D|---------------------------------------------------------------------------|
A|--8-8--8-8--6-6--6-6--4-4--4-4--3-3--3-3-----------------------------------|
E|---------------------------------------------------------------------------|


G|---------------------------------------------------------------------------|
D|----------------------6-6--6-6--8-8--8-8-----------------------------------|
A|--8-8--8-8--6-6--6-6-------------------------------------------------------|
E|---------------------------------------------------------------------------|


Verse 3:

G|---------------------------------------------------------------------------|
D|---------------------------------------------------------------------------|
A|--8-8--8-8--8-8--8-8------------8-8--8-8-----------------------------------|
E|----------------------8-8--8-8---------------------------------------------|

G|---------------------------------------------------------------------------|
D|---------------------------------------------------------------------------|
A|--8-8--8-8--8-8--8-8-------------------------------------------------------|
E|----------------------6-6--6-6--8-8--8-8-----------------------------------|

G|---------------------------------------------------------------------------|
D|---------------------------------------------------------------------------|
A|------------8-8--8-8-------------------------------------------------------|
E|--6-6--6-6------------8-8--8-8--9-9--9-9-----------------------------------|

G|---------------------------------------------------------------------------|
D|----------------------8-8--8-8---------------------------------------------|
A|--9-9--9-9--8-8--8-8-------------------------------------------------------|
E|--------------------------------8-8--8-8-----------------------------------|


Chorus:

G|---------------------------------------------------------------------------|
D|---------------------------------------------------------------------------|
A|--8-8--8-8-------8-8------------8-8--8-8-----------------------------------|
E|------------6-6-------6-6--6-6---------------------------------------------|

G|---------------------------------------------------------------------------|
D|---------------------------------------------------------------------------|
A|--10-10--10-10--8-8--10-10-------------------------------------------------|
E|------------------------------8-8--8-8--8-8--8-8---------------------------|

G|---------------------------------------------------------------------------|
D|----------------------8-8--8-8--8-8--8-8-----------------------------------|
A|--8-8--8-8--8-8--8-8-------------------------------------------------------|
E|---------------------------------------------------------------------------|

G|---------------------------------------------------------------------------|
D|---------------------------------------------------------------------------|
A|----------------------8-8--8-8--8-8--8-8-----------------------------------|
E|--8-8--8-8--8-8--8-8-------------------------------------------------------|


Outro:
G|---------------------------------------------------------------------------|
D|---------------------------------------------------------------------------|
A|--8-8--8-8--8-8--8-8--8-8--8-8--8-8--8-8--8-8--8-8-------------------------|
E|---------------------------------------------------------------------------|


*********************
Please feel free to add on or suggest anything that could improve this tab !

Almost there ...

Sign in to get your own page with links to favourite songs and more. You are just one click away...

Login with Facebook Login with Google