Log in

One click and you are in

Login with Facebook Login with Google

Why sign up and log in

Guitar Tabs Explorer
Misc Cartoons guitar tabs for Demon slayer - kimetsu no yaiba opening

Demon Slayer - Kimetsu No Yaiba Opening tab by Misc Cartoons

Misc Cartoons guitar tabs for Demon slayer - kimetsu no yaiba opening

Guitar tabs

Tuning: Drop A chord diagramD MajorD (A chord diagramD MajorD A chord diagramA majorA A chord diagramD MajorD A chord diagramG MajorG A chord diagramBB A chord diagramE MajorE)


Intro Lead:

e|--------------------------------------------------------------------------|
B|-----8--7--8--------/8--7--8-----------8--7-------------------------------|
G|---------------------------------------------9----7--6--7-----------------|
D|--------------------------------------------------------------------------|
A|--------------------------------------------------------------------------|
E|--------------------------------------------------------------------------|

e|---------------------------------------------------------------------------|
B|-----------------------8--8/10-------8--10---10/12-------------------------|
G|-------7--7/9------9-------------------------------------------------------|
D|----9----------------------------------------------------------------------|
A|---------------------------------------------------------------------------|
E|---------------------------------------------------------------------------|


Intro Rhythm:

e|---------------------------------------------------------------------------|
B|------------------------12-------------------------------------------------|
G|------------------------14b16----------------------------------------------|
D|--2---0---2---0------------------------------------------------------------|
A|--2---0---2---0------------------------------------------------------------|
E|--2---0---2---0------------------------------------------------------------|

?


Verse GUITAR (Vocals):

?

e|----------------------------------------------------------------|
B|----7h8-7-------------------------------------------------------|
G|--9--------7-7/9-7-------------------------------------------7--|
D|-----------------------7-5-5-7-10\9-------------5-7--7/9-7-9----|
A|-------------------------------------7--------7-----------------|
E|----------------------------------------------------------------|

?

e|---------------------------------------------------------------------------|
B|----7h8-7----------------10-12-10-12-10-12-13\12--8------8-7-7-8-8/10---8--|
G|--9--------7-7/9-7---------------------------------------------------------|
D|----------------------12---------------------------------------------------|
A|---------------------------------------------------------------------------|
E|---------------------------------------------------------------------------|

?

e|-----------------------------------------8-/-10------------|
B|--10-8-----8-10/12-10---------10-8-----8----------------8--|
G|--------9---------------------------9----------------------|
D|-----------------------------------------------------------|
A|-----------------------------------------------------------|
E|-----------------------------------------------------------|

?

e|------------------------------------10--------------------------------|
B|--10-8-----8-10/12-10---10-12-10-12----12-10-8--------8-7-7-8-8/10----|
G|--------9-------------------------------------------------------------|
D|----------------------------------------------------------------------|
A|----------------------------------------------------------------------|
E|----------------------------------------------------------------------|

?

GUITAR (Lead):

?

e|-------------------------------------|
B|-------------------------------------|
G|-------------------------------------|
D|--------------------------------4-b--|
A|-------------------------------------|
E|-------------------------------------|


?


Pre-Chorus GUITAR (Vocals):

?

e|----------------------------------------------------------|
B|--8-7-7/8-----8-7-7/8-------8-7---------------------------|
G|---------------------------------9--p-7-6/7--------7-7/9--|
D|------------------------------------------------9---------|
A|----------------------------------------------------------|
E|----------------------------------------------------------|

?

e|--------------------------------------------------|
B|-------8-8/10----8--10-10b12------------------12--|
G|----9---------------------------------------------|
D|--------------------------------------12--12------|
A|--------------------------------------------------|
E|--------------------------------------------------|

?

GUITAR (Rhythm):

?

D|-------------------------------------------------------|
A|-------------------------------------------------------|
F|-------------------------------------------------------|
C|--(0)-x--x--x--(2)-x--x--x--(4)-x-6-7-(4)-6---4--------|
G|--(0)-x--x--x--(2)-x--x--x--(4)-x-----(4)--------------|
C|--(0)-x--x--x--(2)-x--x--x--(4)-x-----(4)--------------|

?

GUITAR (Lead):

?

e|----------------------------------------7(NH)--|
B|----------------------------------12-----------|
G|----------------------------------15-----------|
D|--------------------------2p0------------------|
A|-----------------------------------------------|
E|------------------------------3p0--------------|

?

GUITAR (Vocals):

?

e|------------------------------------------------------------------------------------------------|
B|-----12-15-12----12-12--------12-15-12----12-12------------------------------15--13--12---------|
G|--14----------14--------12-14----------14--------------14-14--------12-14-12------------14--12--|
D|-------------------------------------------------12-12--------12-12-----------------------------|
A|------------------------------------------------------------------------------------------------|
E|------------------------------------------------------------------------------------------------|

?

GUITAR (Rhythm):

?

D|--------------------------------------|
A|--------------------------------------|
F|-----------------------------6--------|
C|--0--------2--------4--------6--------|
G|--0--------2--------4--------4--------|
C|--0--------2--------4-----------------|

?

GUITAR (Vocals):

?

e|--------------------------------------------------------------|
B|--------------12-------------12-15------------------------12--|
G|--12--/12--14----14------14-----------14b16-------------------|
D|--------------------------------------------------12--12------|
A|--------------------------------------------------------------|
E|--------------------------------------------------------------|

?

GUITAR (Rhythm):

?

D|---------------------------------------------------------------|
A|---------------------------------------------------------------|
F|---------------------------------------------------------------|
C|--0--------3--------4--2--4--2--#-#-#-#-11--9--11--9--#-#-#-#--|
G|--0--------4--------4--2--4--2--#-#-#-#-11--9--11--9--#-#-#-#--|
C|--0--------3--------4--2--4--2--#-#-#-#-11--9--11--9--#-#-#-#--|

?

GUITAR (Vocals):

?

e|----------------------------------------------------------------------14b15b14------------------|
B|-----12-15-12----12-12-----------12-15-12----12----------------12--12------------15--12---------|
G|--14----------14--------12-12-14----------14----12--12-12--14---------------------------14--12--|
D|------------------------------------------------------------------------------------------------|
A|------------------------------------------------------------------------------------------------|
E|------------------------------------------------------------------------------------------------|

?

GUITAR (Rhythm):

?

D|--------------------------------------|
A|--------------------------------------|
F|--------------------------------------|
C|--0--------2--------3--------4--------|
G|--0--------2--------4--------4--------|
C|--0--------2--------3--------4--------|

?

GUITAR (Vocals):

?

e|---------------------------------------------|
B|--------------12-----------12-15--15b17------|
G|--12---12--14----14----14--------------------|
D|---------------------------------------------|
A|---------------------------------------------|
D|---------------------------------------------|
?

GUITAR (Rhythm):

?

D|------------------------------------|
A|------------------------------------|
F|------------------------------------|
C|--0--------2-2-----4--2--4--2--4-4--|
G|--0--------2-2-----4--2--4--2--4-4--|
C|--0--------2-2-----4--2--4--2--4-4--|


************************************

| /    Slide up
| b    Bend
| h    Hammer-on
| \    Slide down
| p    Pull-off
| x    Dead note
| (n)  Ghost note

************************************

Almost there ...

Sign in to get your own page with links to favourite songs and more. You are just one click away...

Login with Facebook Login with Google