Log in

One click and you are in

Login with Facebook Login with Google

Why sign up and log in

Guitar Tabs Explorer
Misc Cartoons bass tabs for Demon slayer - gurenge kimetsu no yaiba

Demon Slayer - Gurenge Kimetsu No Yaiba bass tab by Misc Cartoons

Misc Cartoons bass tabs for Demon slayer - gurenge kimetsu no yaiba

Bass tabs

Tuning: Drop D (D A D G)

Gurenge Standard tuning
Bpm=135
     1    2     3    4     5    6
G|--4-|------|---------|--------|-------|----------|-------------|
D|--/-|------|---------|--------|-------|----------|-------------|
A|--4-|------|---------|--------|-------|----------|-------------|
D|----|------|---------|--------|-------|----------|-------------|
        7              8
G|-------------------------------|-------------------------------|
D|-------------------------------|-------------------------------|
A|-------------------------------|-------------------------------|
D|---2--------------2------------|---2--------------2------------|
        9             10
G|-------------------------------|-------------------------------|
D|-------------------------------|-------------------------------|
A|-------------------------------|-------------------------------|
D|---2--------------2------------|---2--------------2------------|
   11   12   13    14   15   16   17    18
G|-------|-------|-------|-------|-------|-------|-------|-------|
D|---2---|---0---|-------|---0---|---2---|---0---|-------|---0---|
A|-------|-------|---3---|-------|-------|-------|---3---|-------|
D|-------|-------|-------|-------|-------|-------|-------|-------|
   19   20   21   22   23    24   25   26
G|-------|-------|-------|-------|-------|-------|-------|-------|
D|---2---|---0---|-------|---0---|---2---|---0---|-------|---0---|
A|-------|-------|---3---|-------|-------|-------|---3---|-------|
D|-------|-------|-------|-------|-------|-------|-------|-------|
   27       28        29       30
G|----------|----------------|---------------|-------------------|
D|----------|----------------|---------------|-------------------|
A|----------|----------------|---------------|-------------------|
D|----------|----------------|---------------|-------------------|
    31       32       33        34
G|---------------|---------------|---------------|---------------|
D|---------------|-0---0---0---0-|-2---2---2---2-|---------------|
A|-3---3---3---3-|---------------|---------------|---------------|
D|---------------|---------------|---------------|---------------|
     35       36       37       38
G|---------------|---------------|---------------|---------------|
D|---------------|-0---0---0---0-|---------------|---------------|
A|-3---3---3---3-|---------------|---------------|-2---2---2---2-|
D|---------------|---------------|-2---2---2---2-|---------------|
     39       40       41       42
G|---------------|---------------|---------------|---------------|
D|---------------|-1---1---1---1-|---------------|-4-------4-----|
A|-3---3---3---3-|---------------|-2-------2-----|---------------|
D|---------------|---------------|---------------|---------------|

     43      44        45      46
G|---------------|---------------|---------------|---------------|
D|---------------|-0---0---0---0-|-1---1---1---1-|---------------|
A|-3---3---3---3-|---------------|---------------|---------------|
D|---------------|---------------|---------------|-2---2---2---2-|



     47      48      49
G|---------------|-------------|-------------|--------------------|
D|---------------|-------------|-------------|--------------------|
A|-3---3---3---3-|-------------|-------------|--------------------|
D|---------------|-------------|-2-------2---|--------------------|

Almost there ...

Sign in to get your own page with links to favourite songs and more. You are just one click away...

Login with Facebook Login with Google