Log in

One click and you are in

Login with Facebook Login with Google

Why sign up and log in

Guitar Tabs Explorer
Misc Cartoons bass tabs for Clarence - king of the world

Clarence - King Of The World bass tab by Misc Cartoons

Misc Cartoons bass tabs for Clarence - king of the world

Bass tabs

Tuning: Standard (E A D G)


Intro:

G|---------------------------------------------------------------------------|
D|------------0-2------------------------------------------------------------|
A|-2-2--0--2-------0--2--0-2-2-----------------------------------------------|
E|---------------------------------------------------------------------------|


Intro:

G|---------------------------------------------------------------------------|
D|-2-2------------0-0--0--2--------------------------------------------------|
A|------3-3------------------2-2---------------------------------------------|
E|-----------3-3-------------------------------------------------------------|


Chorus:

G|---------------------------------------------------------------------------|
D|---------------------------------------------------------------------------|
A|----------5--5--0--0------------5--5--0--0------------5--0--5--7--0-2------|
E|-0--0--3-------------0-0--0--3-------------0-0--0--3-----------------------|

Almost there ...

Sign in to get your own page with links to favourite songs and more. You are just one click away...

Login with Facebook Login with Google